Mason Williams

Classical Gas

Mason Williams

tabs Beginner beginner

by  RORDAQUE

save to print version add songbook text version e-mail correct tuner
chordsukulelecavacokeyboardtabbassdrumsharmonicaflute Guitar Pro
close

there isn't a video lesson for this song

chords

Classical Gas

	  		#Riff muito bom para se fazer no viol„o# 
 
E--8-7-5---5------5---5-0------------------------------------- 
B--------8---7------7----------------------------------------- 
G------------------------------------------------------------- 
D---------------0--------------------------------------------- 
A--0---------------------------------------------------------- 
E------------------------------------------------------------- 
 
E--8-7-5---5-------------------------------------------------- 
B--------8---7----8-7-8-7------------------------------------- 
G------------------------------------------------------------- 
D------------------------------------------------------------- 
A--0------------0--------------------------------------------- 
E------------------------------------------------------------- 
 
E--8-7-5---5-----8-5---5---3-----1---------------------------- 
B--------8---7-------8-----3--5--1---------------------------- 
G--------------------------4--5--2---------------------------- 
D--------------------------5--5--3---------------------------- 
A--------------0-----------5--3--3---------------------------- 
E--0-----------------------3-----1---------------------------- 

		  

See also:

tabs Johnny Cash - Hurt tabs Journey - Separate Ways (Worlds Apart) tabs Journey - Don't Stop Believin' tabs Journey - Any Way You Want It tabs Creedence Clearwater Revival - Have you Ever See The Rain (ver. 2) tabs Carpenters - Superstar
e-chords

Other versions:

tabs Eric Clapton - Classical Gas tabs Mason Williams - Classical Gas tabs Mason Williams - Classical Gas (ver. 2)
auto scroll beats size up size down change color hide chords drawings
tab show chords e-chords YouTube Clip e-chords hide all tabs e-chords go to top tab

share