Maroon 5

home > Maroon 5

Soap Disco Tab

Maroon 5

Difficulty: nolevelnolevel

by educastilho

tuner correct add songbook print version text version save to e-mail
chordsukulelecavacokeyboardtabbassdrumsharmonicsflute Guitar Pro
chords

Soap Disco

  		Verso 1: 
e|--------------------| 
B|--------------------| 
G|--------------------|  (4x) 
D|--------------------| 
A|333333333--55555555-| 
E|111111111--33333333-| 

Refrão: 
e|-------------------------------8-8-8-8-8-8-8-8| 
B|-------------------------------9-9-9-9-9-9-9-9| 
G|------------------------------1010101010101010|   (2x) 
D|555555555---------------------1010101010101010| 
A|333333333--77777777--33333333--8-8-8-8-8-8-8-8| 
E|-----------55555555--11111111-----------------| 

Verso 2: 
e|--------------------| 
B|--------------------| 
G|--------------------|   (4x) 
D|--------------------| 
A|333333333--55555555-| 
E|111111111--33333333-| 

Refrão: 
e|-------------------------------8-8-8-8-8-8-8-8| 
B|-------------------------------9-9-9-9-9-9-9-9| 
G|------------------------------1010101010101010|   (2x) 
D|555555555---------------------1010101010101010| 
A|333333333--77777777--33333333--8-8-8-8-8-8-8-8| 
E|-----------55555555--11111111-----------------| 

Solo 1: 
e|---------------------------------------------------------------------| 
B|---------------------------------------------------------------------| 
G|--10-9---7--------10-9-7----------------------9-10-10-10--9-7--------| 
D|7----------10-9--7-------10-9-10--7-9--7-7-7-------------------10-9--| 
A|---------------------------------------------------------------------| 
E|---------------------------------------------------------------------| 

e|---------------------| 
B|---------------------| 
G|--10-9---7-------5-5-| 
D|7----------10-9------| 
A|---------------------| 
E|---------------------| 

Refrão: 
e|-------------------------------8-8-8-8-8-8-8-8| 
B|-------------------------------9-9-9-9-9-9-9-9| 
G|------------------------------1010101010101010|   (2x) 
D|555555555---------------------1010101010101010| 
A|333333333--77777777--33333333--8-8-8-8-8-8-8-8| 
E|-----------55555555--11111111-----------------| 

Ponte: 
e|13-----12-----13----16-----|----8-----8-----8-----12-----12-----12--| 
B|13-----14-----13----18-----|-----8-----8-----------14-----14-----14-| 
G|12-----14-----14----17-----|-9----9-----9-----------14-----14-------| 
D|---------------------------|----------------------------------------| 
A|---------------------------|----------------------------------------| 
E|---------------------------|----------------------------------------| 

e|13-----13-----13--------13---15-13------| 
B|-13-----13-----13-----13---13-----13----| 
G|--14-----14---------13------------------| 
D|----------------------------------------| 
A|----------------------------------------| 
E|----------------------------------------| 

Solo 2: 
e|-15b--15~-------------------------------------------------| 
B|------------------------13-15--15b--------------13-15b-15b| 
G|------------------12-14-------------------12~-14----------| 
D|------------12-14---------------------14~-----------------| 
A|----------------------------------------------------------| 
E|----------------------------------------------------------| 

e|-20b--20~-------------------------------------------------| 
B|------------------------13-15--15b--------------13-15-15b-| 
G|------------------12-14-------------------12-14-----------| 
D|------------12-14---------------------12-14---------------| 
A|----------------------------------------------------------| 
E|----------------------------------------------------------| 

e|-12-17-12-15b--20b----| 
B|----------------------| 
G|----------------------| 
D|----------------------| 
A|----------------------| 
E|----------------------| 

Refrão: 
e|------------8-| 
B|------------9-| 
G|-----------10-| 
D|55---------10-| 
A|33--77--3---8-| 
E|----55--1-----| 

e|-------------------------------8-8-8-8-8-8-8-8| 
B|-------------------------------9-9-9-9-9-9-9-9| 
G|------------------------------1010101010101010|   (3x) 
D|555555555---------------------1010101010101010| 
A|333333333--77777777--33333333--8-8-8-8-8-8-8-8| 
E|-----------55555555--11111111-----------------| 

Outro: 
e|13-----13---------12--12---------13--13|----13-----13---13----| 
B|13-------13---13--14----14-----|-14----13-----13-----13-13----| 
G|12---------12-----14------14----|14-----14-----14-------14----| 
D|--------------------------------------------------------------| 
A|--------------------------------------------------------------| 
E|--------------------------------------------------------------| 

e|-------------------------------8-8-8-8-8-8-8-8---| 
B|-------------------------------9-9-9-9-9-9-9-9---| 
G|------------------------------1010101010101010---| 
D|555555555---------------------1010101010101010--5| 
A|333333333--77777777--33333333--8-8-8-8-8-8-8-8--3| 
E|-----------55555555--11111111--------------------| 
	  

Search Paypal
auto scroll beats size up size down change color hide chords drawings
tab show chords e-chords YouTube Clip e-chords hide all tabs e-chords go to top tab