Maroon 5

home > Maroon 5

One More Night Tab

Maroon 5

Difficulty: AdvancedAdvanced

by terr%5Fschmitz

tuner correct add songbook print version text version save to e-mail
chordsukulelecavacokeyboardtabbassdrumsharmonicsflute Guitar Pro
chords

One More Night

  		

INTRO 

Electric 1 

E|-------------------------| 
B|-------------------------| 
G|---8-8---8-8---6-6-------| 
D|---8-8---8-8---6-6---6-6-| 
A|-6-6-6-6-6-6-4-4-4---6-6-| 
D|-------------------6-6-6-| 

VERSE (part 1) 

Electric 1+2 
 (listen to song for strum and mute pattern) 
E|---------| 
B|---------| 
G|---------| 
D|-13-11-6-| 
A|-13-11-6-| 
D|-13-11-6-| 

VERSE (part 2) 

Electric 1+2 
(full strums,listen for pattern) 
E|--------------------| 
B|--------------------| 
G|----h15----h13---h8-| 
D|-13-----11-----6----| 
A|-13-----11-----6----| 
D|-13-----11-----6----| 

Pre-Chorus 

Electric 2 
 (quickly) 
E|--------| 
B|--------| 
G|--------| 
D|-6/8/11-| 
A|-6/8/11-| 
D|-6/8/11-| 

Chorus 

Electric 1 
  (played fast) 
E|---------------------------------------------------------| 
B|---------------------------------------------------------| 
G|-15r13r11----11h13--15r13r11----11h13--18r15r13----13h15-| 
D|----------13-----------------13-----------------16-------| 
A|---------------------------------------------------------| 
D|---------------------------------------------------------| 

Electric 2 
                      (end on) 
E|-------------------  -----| 
B|-------------------  -----| 
G|-------------------  -----| 
D|-13\-xxxx-11\-xxxx-  --13-| 
A|-13\-xxxx-11\-xxxx-  --13-| 
D|-13\-xxxx-11\-xxxx-  --13-| 

INTRO 

BRIDGE 

Electric 1 
 (listen to song for pattern) 
E|------------------------------------------------| 
B|------------------------------------------------| 
G|-----------8--11--13----8--3--6----8----8--3--6-| 
D|-----------x--x---x-----x--x--x----x----x--x--x-| 
A|-----------6--9---11----6--1--4----6----6--1--4-| 
D|-pickslide--------------------------------------| 

Electric 2 

E|---------------------23------------14h15h15h15h15h15-| 
B|------------------------19---------------------------| 
G|-----------------------------------------------------| 
D|-13-16-18--13-4-1-13--------13-4-6-------------------| 
A|-13-16-18--13-4-1-13--------13-4-6-------------------| 
D|-13-16-18--13-4-x-13--------13-4-6-------------------| 

Chorus 

Chorus (variation) 

Electric 1+2 
(full strums,listen for pattern) 
E|---------------| 
B|---------------| 
G|----h15----h13-| 
D|-13-----11-----| 
A|-13-----11-----| 
D|-13-----11-----| 

2ND PLAY THROUGH OF Chorus (variation) 

Electric 2 
(full strums,listen for pattern) 
E|---------------| 
B|---------------| 
G|----h15----h13-| 
D|-13-----11-----| 
A|-13-----11-----| 
D|-13-----11-----| 

Electric 1 
  (played fast) 
E|---------------------------------------------------------| 
B|---------------------------------------------------------| 
G|-15r13r11----11h13--15r13r11----11h13--18r15r13----13h15-| 
D|----------13-----------------13-----------------16-------| 
A|---------------------------------------------------------| 
D|---------------------------------------------------------| 

INTRO 

BRIDGE/BREAKDOWN 

Electric 1+2 
 (listen to song for strum and mute pattern) 
E|--------| 
B|--------| 
G|--------| 
D|-13-11--| 
A|-13-11--| 
D|-13-11--| 

POST  

Electric 1 

E|------------------------------| 
B|-11--9h11r9-7-6----------7----| 
G|----------------8r6h8-------8-| 
D|------------------------------| 
A|------------------------------| 
D|------------------------------| 

INTRO 

Chorus (another variation) 

Electric 1+2 

E|---------------| 
B|---------------| 
G|---------------| 
D|-13\-xxxx-xxxx-| x2 
A|-13\-xxxx-xxxx-| 
D|-13\-xxxx-xxxx-| 

Chorus 2ND TIME... 
 (full strums) 
E|------------------| 
B|------------------| 
G|------------------| 
D|-13-16-18--13-4-1-| 
A|-13-16-18--13-4-1-| 
D|-13-16-18--13-4-x-| 


BREAKDOWN 
	  

Search Paypal
auto scroll beats size up size down change color hide chords drawings
tab show chords e-chords YouTube Clip e-chords hide all tabs e-chords go to top tab