Maroon 5

home > Maroon 5

Nothing Lasts Forever Tab

Maroon 5

Difficulty: BeginnerBeginner

by gustsilva

tuner correct add songbook print version text version save to e-mail
chordsukulelecavacokeyboardtabbassdrumsharmonicsflute Guitar Pro
chords

Nothing Lasts Forever

Year: 2007 - Album: It Won't Be Soon Before Long

  		Tuning:dadgbd(i messed it up b4 its fixed now though!) 
 intro-verse 
                       play 3 times               play 3 times 

d|--------0----------!-0---------0------!----0--!-0---------0---------!------| 
B|------------3--------- 3---------3----------------2----------2-------------| 
G|-----------------2--------2----------2----------------2---------2-----------| 
D|--------0----------------------------------0-------------------------------| 
A|---------------------------------------------------------------------------| 
d|-------------------!-------------------!------!----------------------!-----| 

 
d|---0-----0---------0-----------0---------------4----------4---------------| 
B|------------0----------0-----------0---------------5-----------5----------| 
G|---------------0-----------0-----------0---------------0-----------0------| 
D|--------------------------------------------------------------------------| 
A|--------------------------------------------------------------------------| 
d|---5-------------------------------------------5--------------------------| 
 

 
e|---4----------------------------------------------------------------------| 
B|--------5-----------------------------------------------------------------| 
G|-------------0------------------------------------------------------------| 
D|--------------------------------------------------------------------------| 
A|--------------------------------------------------------------------------| 
E|--------------------------------------------------------------------------| 
 

 chours is all dotted quater notes(meaning they last for 2 beats) 

 
d|---0---0---0----5-------------------------------4-------------------------| 
B|---3---2---0----4-------------------------------3-------------------------| 
G|---2---2---0----0-------------------------------2-------------------------| 
D|---0---0---0----0-------------------------------0-------------------------| 
A|-----------x----x---------------------------------------------------------| 
d|-----------5----5---------------------------------------------------------| 
 
                             on last chours only ^ 

bridge(this isnt right i dont think do it the same as chours picking rp.3 times each) 
 
e|----0-------------------0----------------------------0---------------------| 
B|---------0--------------------0---------------------------0----------------| 
G|--------------0----------------------0------------------------0------------| 
D|---------------------------------------------------------------------------| 
A|---------------------------------------------------------------------------| 
E|----7-------------------5-----------------------------2--------------------| 
 


intro 2 times 
verse 3-4 times 
chours play 3-5 times 
verse agian 
bridge i think 
final chours 2 times 
	  

Search Paypal
auto scroll beats size up size down change color hide chords drawings
tab show chords e-chords YouTube Clip e-chords hide all tabs e-chords go to top tab