Maroon 5

home > Maroon 5

Closure Tab

Maroon 5

Difficulty: nolevelnolevel

by bombaXXX

tuner correct add songbook print version text version save to e-mail
chordsukulelecavacokeyboardtabbassdrumsharmonicsflute Guitar Pro
chords

Closure

Key:  Am More
Closure Key EmEm
Closure Key FmFm
Closure Key F#mF#m
Closure Key GmGm(one step down)
Closure Key G#mG#m(half step down)
Closure Key AmAm(original key)
Closure Key A#mA#m(half step up)
Closure Key BmBm(one step up)
Closure Key CmCm
Closure Key C#mC#m
Closure Key DmDm
Closure Key D#mD#m
  		 

Intro 
  Am        G           Am      G           F       G            F      G 
e|---------------------|-------------------|--------------------|---------------| X2 
B|--1-------0----------|-1------0----------|--------0-----------|-------0-------| 
G|---------------------|-------------------|--2-----------------|--2------------| 
D|----2==------0-------|---2==-----0-------|-----------0--------|---------0-----| 
A|0--------------------|-------------------|----3---------------|----3----------| 
E|----------3-----3--0-|--------3-----3--0h|1-------3------3--0h|1------3----3-0| 


verse 1 
  Am        G           Am      G           F       G            F      G 
e|---------------------|-------------------|--------------------|---------------| X2 
B|--1-------0----------|-1------0----------|--------0-----------|-------0-------| 
G|---------------------|-------------------|--2-----------------|--2------------| 
D|----2==------0-------|---2==-----0-------|-----------0--------|---------0-----| 
A|0--------------------|-------------------|----3---------------|----3----------| 
E|----------3-----3--0-|--------3-----3--0h|1-------3------3--0h|1------3----3-0| 


Chorus 
  Am        G           Am      G           F       G            F      G 
e|---------------------|-------------------|--------------------|---------------| X2 
B|--1-------0----------|-1------0----------|--------0-----------|-------0-------| 
G|---------------------|-------------------|--2-----------------|--2------------| 
D|----2==------0-------|---2==-----0-------|-----------0--------|---------0-----| 
A|0--------------------|-------------------|----3---------------|----3----------| 
E|----------3-----3--0-|--------3-----3--0h|1-------3------3--0h|1------3----3-0| 


verse 2 
  Am        G           Am      G           F       G            F      G 
e|---------------------|-------------------|--------------------|---------------| X2 
B|--1-------0----------|-1------0----------|--------0-----------|-------0-------| 
G|---------------------|-------------------|--2-----------------|--2------------| 
D|----2==------0-------|---2==-----0-------|-----------0--------|---------0-----| 
A|0--------------------|-------------------|----3---------------|----3----------| 
E|----------3-----3--0-|--------3-----3--0h|1-------3------3--0h|1------3----3-0| 


Chorus 
  Am        G           Am      G           F       G            F      G 
e|---------------------|-------------------|--------------------|---------------| X2 
B|--1-------0----------|-1------0----------|--------0-----------|-------0-------| 
G|---------------------|-------------------|--2-----------------|--2------------| 
D|----2==------0-------|---2==-----0-------|-----------0--------|---------0-----| 
A|0--------------------|-------------------|----3---------------|----3----------| 
E|----------3-----3--0-|--------3-----3--0h|1-------3------3--0h|1------3----3-0| 



verse 3 
  Am        G           Am      G           F       G            F      G 
e|---------------------|-------------------|--------------------|---------------| X2 
B|--1-------0----------|-1------0----------|--------0-----------|-------0-------| 
G|---------------------|-------------------|--2-----------------|--2------------| 
D|----2==------0-------|---2==-----0-------|-----------0--------|---------0-----| 
A|0--------------------|-------------------|----3---------------|----3----------| 
E|----------3-----3--0-|--------3-----3--0h|1-------3------3--0h|1------3----3-0| 


Chorus 
  Am        G           Am      G           F       G            F      G 
e|---------------------|-------------------|--------------------|---------------| X2 
B|--1-------0----------|-1------0----------|--------0-----------|-------0-------| 
G|---------------------|-------------------|--2-----------------|--2------------| 
D|----2==------0-------|---2==-----0-------|-----------0--------|---------0-----| 
A|0--------------------|-------------------|----3---------------|----3----------| 
E|----------3-----3--0-|--------3-----3--0h|1-------3------3--0h|1------3----3-0| 


Outro 
                  repeat 
e|---------------------| 
B|---------------------| 
G|--2---2-------0--2---| 
D|-----------2---------| 
A|---------------------| 
E|---------------------| 
  PM_________________ 



************************************ 

| h   Hammer-on 
| PM  Palm mute 

************************************ 
	  

Full key step upFull key step up
Half key step upHalf key step up
Half key step downHalf key step down
Full key step downFull key step down
Search Paypal
auto scroll beats size up size down change color hide chords drawings
tab show chords e-chords YouTube Clip e-chords hide all tabs e-chords go to top tab