Marilyn Manson

home > Marilyn Manson

Tourniquet Tab

Marilyn Manson

Difficulty: BeginnerBeginner

tuner correct add songbook print version text version save to e-mail
chordsukulelecavacokeyboardtabbassdrumsharmonicsflute Guitar Pro
chords

Tourniquet

  		^= bend up full step and hold
'= release

E----------------------------------------------------------|
B----------------------------------------------------------|
G-2^-2--2-'2--0---0----------------------------------------|
D---------------3---0--------------------------------------|
A----------------------------------------------------------|
E----------------------------------------------------------|

Intro

-------------------------------------------------------------------------------e
-------------------------------------------------------------------------------b
3b--1-----1---------3b--1-----1---------3b--1-----1---------3b--1-----1--------g
------4-4-----------------4-4-----------------4-4-----------------4------------d
--------------5--6----------------5--6----------------5--6---------------------a
-------------------------------------------------------------------------------e

wasn't that fun- toy with it a little bit and i'm sure you can make it sound
better...
     

Main riff intro
|-------------------------_---|
|-----------------------5b-r--|
|-----_________---------5b-r--|
|--7b----7---7-r7-3-5-3-------|
|-----------------------------|
|-----------------------------|


Chorus-this might look messed up, sorry
|--------------------------------------------------------------------------------------------|
|--------------------------------------------------------------------------------------------|
|-------------------------------------------------------------------15-15-15-15-15-15-15-15--|
|--5-5-5-5-5-5-5-5-/12-12-12-12-12-12-12-12-13-13-13-13-13-13-13-13--------------------------|
|--5-5-5-5-5-5-5-5--------------------------------------------------13-13-13-13-13-13-13-13--|
|--3-3-3-3-3-3-3-3---------------------------------------------------------------------------|

that weird hor-sounding part
|-----------|
|-----------|
|-----------|
|-----------|
|-----------|
|--3bv~~~r--|
	  

Search Paypal
auto scroll beats size up size down change color hide chords drawings
tab show chords e-chords YouTube Clip e-chords hide all tabs e-chords go to top tab