Marilyn Manson

Tainted love

Marilyn Manson

tabs Advanced advanced

save to print version add songbook text version e-mail correct tuner
chordsukulelecavacokeyboardtabbassdrumsharmonicaflute Guitar Pro
close

there isn't a video lesson for this song

chords

Tainted love

	  		    Intro e base:
  
         G5
           1
  e-------------------11-11-11-11---------------|
  B----------11-11-11-------------11-11-13------|
  G---12-12 ------------------------------------|
  D---------------------------------------------|
  A---------------------------------------------|
  E---------------------------------------------|
  
   
   A intro toda baseada nesse solinho

Refrão:

        G5     Bb5     D#5    C5
  e---------------------------------------------|
  B---------------------------------------------|
  G--------------------8-------5----------------|
  D-----5-------8------8-------5----------------|
  A-----5-------8------6-------3----------------|
  E-----3-------6-------------------------------|
   

  esse eh o refrão, eh soh encher a guitarra de distorção e zoar pra caralho...

		  

Full key step upFull key step up
Half key step upHalf key step up
Half key step downHalf key step down
Full key step downFull key step down
auto scroll beats size up size down change color hide chords drawings
tab show chords e-chords YouTube Clip e-chords hide all tabs e-chords go to top tab

share