Marilyn Manson

Rock Is Dead

Marilyn Manson

tabs Advanced advanced

save to print version add songbook text version e-mail correct tuner
chordsukulelecavacokeyboardtabbassdrumsharmonicaflute Guitar Pro
close

there isn't a video lesson for this song

chords

Rock Is Dead

	  		intro:

  F#                     A
|---------------------------|
|---------------------------|
|---------------------------|
|-4-4-x-4-4-x-4-4-x-4-4--7--|
|-4-4-x-4-4-x-4-4-x-4-4--7--| 4x
|-2-2-x-2-2-x-2-2-x-2-2--5--|

verse:( bass )

|----------------------------------|
|---------------------------4-2----|
|-------------------------------4--|
|-2-2-2-2-2-2-2-5-2-2-2-2-2--------|

pre-chorus:

  A     C     D
|----------------|
|----------------|
|-------5-----7--|
|-7-----5-----7--|
|-7-----3-----5--|  2x
|-5--------------|

Chorus: 

  F#  E  F#  E
|----------------|   
|----------------|
|-11--9--11/-9---|
|-11--9--11/-9---|  2x
|--9--7---9/-7---|
|----------------|

  E D  E  D
|----------------|
|----------------|
|-9-7--9/-7------|
|-9-7--9/-7------|  2x
|-7-5--7/-5------|
|----------------|

  D  C# D  C#
|----------------|
|----------------|
|-7--6--7/-6-----|
|-7--6--7/-6-----|  2x
|-5--4--5/-4-----|
|----------------|

outro:

  C#     E
|--------------|
|--------------|
|-6-6-6--9-9-9-|
|-6-6-6--9-9-9-|
|-4-4-4--7-7-7-|
|--------------|
		  

Full key step upFull key step up
Half key step upHalf key step up
Half key step downHalf key step down
Full key step downFull key step down
hide glossary

See also:

tabs Slayer - Seasons In The Abyss tabs Alice Cooper - Poison tabs Slipknot - (sic) tabs Slipknot - Before I Forget tabs Dream Theater - A Change of seasons tabs Pantera - Mouth For War
e-chords

Other versions:

tabs Marilyn Manson - Rock Is Dead
auto scroll beats size up size down change color hide chords drawings
tab show chords e-chords YouTube Clip e-chords hide all tabs e-chords go to top tab

share