Maria Cecília e Rodolfo

Você De Volta

Maria Cecília e Rodolfo

tabs Beginner beginner

by  VITOR50CENT

save to print version add songbook text version e-mail correct tuner
chordsukulelecavacokeyboardtabbassdrumsharmonicaflute Guitar Pro
close

there isn't a video lesson for this song

chords

Você De Volta

Year: 2009 -

(Rodolfo)

	  		Solo: 
e|------------------------------------------------------| 
B|----3-3---3h5----3-3---3h5-8-7-7-5-5-3-3---5-3-3---3--| 
G|--4-----4-------2----2-------------------4-------4----| 

e|------------------------------------------------------| 
B|----3-3---3h5----3-3---3h5-8-7-7-5-5-3-3-0------------| 
G|--4-----4-------2----2---------------------4-2-0-2----| 

Tente tambem esse solo: 
e|------------------------------------------------------------------------------| 
B|----3-3---3h5--3---3-3---3h5-3--8-7-7-5-5-3-3---5-3-3---3---------------------| 
G|--4-----4-------4-2----2----------------------4------4------------------------| 
D|------------------------------------------------------------------------------| 
A|------------------------------------------------------------------------------| 
E|------------------------------------------------------------------------------| 

e|------------------------------------------------------------------------------| 
B|----3-3-5-3------3-3-5-3--8-7-7-5-5-3-3-0-------------------------------------| 
G|--4----------4-2--------------------------4-2-2-0-2---------------------------| 
D|------------------------------------------------------------------------------| 
A|---------------------------/solo enviado por Vitor Batista Rocha/-------------| 
E|------------------------------------------------------------------------------| 
		  

See also:

tabs Cássia Eller - Malandragem tabs Engenheiros do Hawaii - Pra ser sincero- (solo intro) tabs Legião Urbana - Eduardo E Mônica tabs Engenheiros do Hawaii - Refrão de Bolero (Acústico MTV) tabs Legião Urbana - Geração Coca-Cola tabs Raimundos - Mulher de Fases
e-chords

Other versions:

tabs Maria Cecília e Rodolfo - Você De Volta tabs Maria Cecília e Rodolfo - Você De Volta Ao Vivo
auto scroll beats size up size down change color hide chords drawings
tab show chords e-chords YouTube Clip e-chords hide all tabs e-chords go to top tab

share