Marcy Playground

Deadly Handsome Man

Marcy Playground

tabs

by  WEEZER PILLOWS

save to print version add songbook text version e-mail correct tuner
chordsukulelecavacokeyboardtabbassdrumsharmonicaflute Guitar Pro
close

there isn't a video lesson for this song

chords

Deadly Handsome Man

	  		deadly handsome man 
marcy playground 
 
STANDARD TUNING 
 
intro and verse 
|----------------------| 
|----------------------| 
|------7---------------| 
|------7--------5------|x10 
|--5-5-5-5------5------| 
|-----------3-3-3-3----| 
THE SINGLE NOTES ARE PALM MUTED 
 
pre-Chorus 
|--2~------------------| 
|--3~------------------| 
|--2~------------------| 
|--0~--5-5-xx-5-x-5-5--|x3 
|------5-5-xx-5-x-5-5--| 
|------3-3-xx-3-x-3-3--| 
after 3 times, just let the D chord ring out. 
 
Chorus 
|----------------------| 
|----------------------| 
|---------------5------|played many times. 
|------5--------5------| 
|------5----3-3-3-3----| 
|--3-3-3-3-------------| 
THE SINGLE NOTES ARE PALM MUTED. 
 
intro / verse x2 
 
pre-Chorus 
 
Chorus 
 
the bridge thing after the Chorus 
|--------------------------| 
|--------------------------| 
|--------------4/5-5-5-xx--|played many 
|--4-/-5-5-xx--4/5-5-5-xx--|times 
|--4-/-5-5-xx--2/3-3-3-xx--| 
|--2-/-3-3-xx--------------| 
played with distortion 
 
end on 
|------| 
|------| 
|------| 
|--5~--| 
|--5~--| 
|--3~--| 
 
 ~enjoy~ 
 
 
 
 
 
 
 

		  

Full key step upFull key step up
Half key step upHalf key step up
Half key step downHalf key step down
Full key step downFull key step down
hide glossary

See also:

tabs Red Hot Chili Peppers - Under the Bridge tabs Eye of the tiger - Eye of the tiger tabs Los Lonely Boys - Heaven tabs Red Hot Chili Peppers - Snow (hey oh) tabs Jeff Buckley - Hallelujah tabs Red Hot Chili Peppers - Venice Queen
e-chords

Other versions:

tabs Marcy Playground - Deadly Handsome Man
auto scroll beats size up size down change color hide chords drawings
tab show chords e-chords YouTube Clip e-chords hide all tabs e-chords go to top tab

share