Marco Forni

Chiara's Theme

Marco Forni

tabs

by  BOMBAXXX

save to print version add songbook text version e-mail correct tuner
chordsukulelecavacokeyboardtabbassdrumsharmonicaflute Guitar Pro
close

there isn't a video lesson for this song

chords

Chiara's Theme

	  		

Tuning: 

e|---------------------------------------------------------------------------| 
B|------9------9----7----5-----7-----9----10----12----12----10---9-----------| 
G|---------------------------------------------------------------------------| 
D|--11-----11----------------------------------------------------------------| 
A|---------------------------------------------------------------------------| 
E|---------------------------------------------------------------------------| 

e|-----------------------------------10----8----10----10----8----------------| 
B|------9-----7-----9----10----12--------------------------------7---9---11--| 
G|---------------------------------------------------------------------------| 
D|---------------------------------------------------------------------------| 
A|--11-----------------------------------------------------------------------| 
E|---------------------------------------------------------------------------| 

 
		  

See also:

tabs Deep Purple - Strange kind of woman tabs Deep Purple - Smoke On The Water tabs Deep Purple - Time To Kill tabs Albert Hammond Jr - Gfc tabs Deep Purple - Soldier Of Fortune tabs Ira! - Nucleo De Base
e-chords

Other versions:

tabs Marco Forni - Chiara's Theme
auto scroll beats size up size down change color hide chords drawings
tab show chords e-chords YouTube Clip e-chords hide all tabs e-chords go to top tab

share