Marble Sounds

The Little Lows

Marble Sounds

tabs

by  TERCMORAES

save to print version add songbook text version e-mail correct tuner
chordsukulelecavacokeyboardtabbassdrumsharmonicaflute Guitar Pro
close

there isn't a video lesson for this song

chords

The Little Lows

	  		
Tuning: Standard 

  1   +   2   +   3   +   4   +   1   +   2   +   3   +   4   +    

e|----------------1-------------------------------0---------------| 
B|----1---------------1-------1-------1---------------1-------1---| 
G|--------2-------------------------------2-----------------------| 
D|3-----------3-----------3-------2-----------2-----------2-------| 
A|----------------------------------------------------------------| 
E|----------------------------------------------------------------| 

  1   +   2   +   3   +   4   +   1   +   2   +   3   +   4   +    

e|----------------0-------------------------------0---------------| 
B|----1---------------1-------1-------1---------------1-------1---| 
G|--------2-------------------------------2-----------------------| 
D|----------------------------------------------------------------| 
A|0-----------0-----------0-------0-----------0-----------0-------| 
E|----------------------------------------------------------------| 

  1   +   2   +   3   +   4   +   1   +   2   +   3   +   4   +    

e|----------------1-------------------------------0---------------| 
B|----1---------------1-------1-------1---------------1-------1---| 
G|--------2-------------------------------2-----------------------| 
D|3-----------3-----------3-------2-----------2-----------2-------| 
A|----------------------------------------------------------------| 
E|----------------------------------------------------------------| 

  1   +   2   +   3   +   4   +   1   +   2   +   3   +   4   +    

e|----------------0-------------------------------0---------------| 
B|----1---------------1-------1-------3---------------3-------1---| 
G|--------2-------------------------------2-----------------------| 
D|----------------------------------------------------------------| 
A|0-----------0-----------0-------2-----------2-----------2-------| 
E|----------------------------------------------------------------| 


---------- repeat above four rows 2 times 


  1   +   2   +   3   +   4   +   1   +   2   +   3   +   4   +    

e|----------------1-------------------------------0---------------| 
B|----1---------------1-------1-------1---------------1-------1---| 
G|--------2-------------------------------2-----------------------| 
D|3-----------3-----------3-------2-----------2-----------2-------| 
A|----------------------------------------------------------------| 
E|----------------------------------------------------------------| 

  1   +   2   +   3   +   4   +   1   +   2   +   3   +   4   +    

e|----------------0-------------------------------0---------------| 
B|----1---------------1-------1-------1---------------1-------1---| 
G|--------2-------------------------------2-----------------------| 
D|----------------------------------------------------------------| 
A|0-----------0-----------0-------0-----------0-----------0-------| 
E|----------------------------------------------------------------| 

  1   +   2   +   3   +   4   +   1   +   2   +   3   +   4   +    

e|----------------1-------------------------------0---------------| 
B|----1---------------1-------1-------1---------------1-------1---| 
G|--------2-------------------------------2-----------------------| 
D|3-----------3-----------3-------2-----------2-----------2-------| 
A|----------------------------------------------------------------| 
E|----------------------------------------------------------------| 

  1   +   2   +   3   +   4   +   1   +   2   +   3   +   4   +    

e|----------------0-------------------------------3---------------| 
B|----1---------------1-------1-------1---------------1-------1---| 
G|--------2-------------------------------0-----------------------| 
D|----------------------------------------------------------------| 
A|0-----------0-----------0---------------------------------------| 
E|--------------------------------3-----------3-----------3-------| 

  1   +   2   +   3   +   4   +   1   +   2   +   3   +   4   +    

e|----------------0-------------------------------0---------------| 
B|----1---------------1-------1-------1---------------1-------1---| 
G|--------2-------------------------------2-----------------------| 
D|0-----------0-----------0-------0-----------0-----------0-------| 
A|----------------------------------------------------------------| 
E|----------------------------------------------------------------| 

  1   +   2   +   3   +   4   +   1   +   2   +   3   +   4   +    

e|----------------0-----------0-------------------0---------------| 
B|----1---------------1---------------1---------------1-------1---| 
G|--------2-------------------------------2-----------------------| 
D|3-----------3-----------3-------3-----------3-----------3-------| 
A|----------------------------------------------------------------| 
E|----------------------------------------------------------------| 

  1   +   2   +   3   +   4   +   1   +   2   +   3   +   4   +    

e|----------------3-------------------------------3---------------| 
B|----1---------------1-------1-------1---------------1-------1---| 
G|--------0-------------------------------0-----------------------| 
D|----------------------------------------------------------------| 
A|3-----------3-----------3-------3-----------3-----------3-------| 
E|----------------------------------------------------------------| 

  1   +   2   +   3   +   4   +   1   +   2   +   3   +   4   +    

e|----------------3-------------------------------3---------------| 
B|----0---------------0-------0-------0---------------0-------0---| 
G|--------0-------------------------------0-----------------------| 
D|----------------------------------------------------------------| 
A|2-----------2-----------2-------2-----------2-----------2-------| 
E|----------------------------------------------------------------| 

---------- repeat above four rows 2 times 


--------------- repeat everything above (including repeats) 


  1   +   2   +   3   +   4   +   1   +   2   +   3   +   4   +    

e|----------------0-------------------------------0---------------| 
B|----1---------------1-------1-------1---------------1-------1---| 
G|--------2-------------------------------2-----------------------| 
D|0-----------0-----------0-------0-----------0-----------0-------| 
A|----------------------------------------------------------------| 
E|----------------------------------------------------------------| 

  1   +   2   +   3   +   4   +   1   +   2   +   3   +   4   +    

e|----------------3-------------------------------3---------------| 
B|----1---------------1-------1-------1---------------1-------1---| 
G|--------2-------------------------------2-----------------------| 
D|2-----------2-----------2-------2-----------2-----------2-------| 
A|----------------------------------------------------------------| 
E|----------------------------------------------------------------| 

  1   +   2   +   3   +   4   +   1   +   2   +   3   +   4   +    

e|----------------0-------------------------------0---------------| 
B|----1---------------1-------1-------1---------------1-------1---| 
G|--------2-------------------------------2-----------------------| 
D|----------------------------------------------------------------| 
A|0-----------0-----------0-------0-----------0-----------0-------| 
E|----------------------------------------------------------------| 

  1   +   2   +   3   +   4   +   1   +   2   +   3   +   4   +    

e|----------------3-------------------------------3---------------| 
B|----1---------------1-------1-------1---------------1-------1---| 
G|--------0-------------------------------0-----------------------| 
D|----------------------------------------------------------------| 
A|----------------------------------------------------------------| 
E|3-----------3-----------3-------3-----------3-----------3-------| 


---------- repeat above four rows 3 times 


  1   +   2   +   3   +   4   +   1   +   2   +   3   +   4   +    

e|----------------0-------------------------------0---------------| 
B|----1---------------1-------1-------1---------------1-------1---| 
G|--------2-------------------------------2-----------------------| 
D|0-----------0-----------0-------0-----------0-----------0-------| 
A|----------------------------------------------------------------| 
E|----------------------------------------------------------------| 

  1   +   2   +   3   +   4   +   1   +   2   +   3   +   4   +    

e|----------------0-----------0-------------------0---------------| 
B|----1---------------1---------------1---------------1-------1---| 
G|--------2-------------------------------2-----------------------| 
D|3-----------3-----------3-------3-----------3-----------3-------| 
A|----------------------------------------------------------------| 
E|----------------------------------------------------------------| 

  1   +   2   +   3   +   4   +   1   +   2   +   3   +   4   +    

e|----------------3-------------------------------3---------------| 
B|----1---------------1-------1-------1---------------1-------1---| 
G|--------0-------------------------------0-----------------------| 
D|----------------------------------------------------------------| 
A|3-----------3-----------3-------3-----------3-----------3-------| 
E|----------------------------------------------------------------| 

  1   +   2   +   3   +   4   +   1   +   2   +   3   +   4   +    

e|----------------3-------------------------------3---------------| 
B|----0---------------0-------0-------0---------------0-------0---| 
G|--------0-------------------------------0-----------------------| 
D|----------------------------------------------------------------| 
A|2-----------2-----------2-------2-----------2-----------2-------| 
E|----------------------------------------------------------------| 


---------- repeat above four rows 3 times 


  1   +   2   +   3   +   4   +   1   +   2   +   3   +   4   +    

e|----------------0-------------------------------0---------------| 
B|----1---------------1-------1-------1---------------1-------1---| 
G|--------2-------------------------------2-----------------------| 
D|0-----------0-----------0-------0-----------0-----------0-------| 
A|----------------------------------------------------------------| 
E|----------------------------------------------------------------| 

  1   +   2   +   3   +   4   +   1   +   2   +   3   +   4   +    

e|----------------0-----------0-------------------0---------------| 
B|----1---------------1---------------1---------------1-------1---| 
G|--------2-------------------------------2-----------------------| 
D|3-----------3-----------3-------3-----------3-----------3-------| 
A|----------------------------------------------------------------| 
E|----------------------------------------------------------------| 

  1   +   2   +   3   +   4   +   1   +   2   +   3   +   4   +    

e|----------------3-------------------------------3---------------| 
B|----1---------------1-------1-------1---------------1-------1---| 
G|--------2-------------------------------2-----------------------| 
D|----------------------------------------------------------------| 
A|0-----------0-----------0-------0-----------0-----------0-------| 
E|----------------------------------------------------------------| 

  1   +   2   +   3   +   4   +   1   +   2   +   3   +   4   +    

e|----------------3-------------------------------3---------------| 
B|----1---------------1-------1-------1---------------1-------1---| 
G|--------0-------------------------------0-----------------------| 
D|----------------------------------------------------------------| 
A|----------------------------------------------------------------| 
E|3-----------3-----------3-------3-----------3-----------3-------| 


************************************ 

| /   slide up 
| \   slide down 
| h   hammer-on 
| p   pull-off 
| ~   vibrato 
| +   harmonic 
| x   Mute note 
| b   Bend 
| pb  Pre-bend 
| br  Bend release 
| pbr Pre-bend release 
| brb Bend release bend 

************************************ 
		  

See also:

tabs Ira! - Poço de Sensibilidade (Solo - Acustico Mtv) tabs Deep Purple - Smoke On The Water tabs Deep Purple - Smoke on the water (intro) tabs Ira! - Eu Quero Sempre Mais (Com Pitty, intro) tabs Deep Purple - Smoke on the Water (ver. 2) tabs Deep Purple - Knocking At Your Back Door
e-chords

Other versions:

tabs Marble Sounds - The Little Lows
auto scroll beats size up size down change color hide chords drawings
tab show chords e-chords YouTube Clip e-chords hide all tabs e-chords go to top tab

share