Manu Gavassi

Cute But Psycho

Manu Gavassi

tabs

by  BRUNBLAZKOWSKI

save to print version add songbook text version e-mail correct tuner
chordsukulelecavacokeyboardtabbassdrumsharmonicaflute Guitar Pro
close

there isn't a video lesson for this song

chords

Cute But Psycho

	  		Solo Inicial  

E|5-5-5-5-3----------------| 
B|----------5-5-3-3-3-3----| 
G|----------------------5-2| 
D|-------------------------| 
A|-------------------------| 
E|-------------------------| 

Refrão 

E|----5-3------------------------------| 
B|--3-----5-5-3-5-3-3---3-3/5-5-5-3----| 
G|2-------------------5-------------5-2| 
D|-------------------------------------| 
A|-------------------------------------| 
E|-------------------------------------| 

( A5  C5  G5  Em5 ) 
		  

Full key step upFull key step up
Half key step upHalf key step up
Half key step downHalf key step down
Full key step downFull key step down
hide glossary

See also:

tabs Daniel - Desatino tabs Luan e Vanessa - Quatro Semanas de Amor tabs Belo - Nada vai separar tabs Daniel - Meu Reino Encantado (ver. 2) tabs Robert Burns - Ye Banks And Braes O? Bonnie Doon tabs Armando Manzanero - Parece Que Fué Ayer
e-chords

Other versions:

tabs Manu Gavassi - Cute But Psycho
auto scroll beats size up size down change color hide chords drawings
tab show chords e-chords YouTube Clip e-chords hide all tabs e-chords go to top tab

share