Mansions

home > Mansions

Falling Down Tab

Mansions

Difficulty: nolevelnolevel

by edsooliveira

tuner correct add songbook print version text version save to e-mail
chordsukulelecavacokeyboardtabbassdrumsharmonicsflute Guitar Pro
chords

Falling Down

  		

Intro/Verse 

e|-----------------------------------------------| 
B|-----------------------------------------------| 
G|-----------------------------------------------| 
D|-----------------------------------------------| 
A|------7-7-7----5-5-5----4-4-4---3-3-3----5-----|  x4 
E|-------------0--------0-------0----------------| 

"You don't ask for answers..." 

e|------------------------------------------------------------------------------------| 
B|------------------------------------------------------------------------------------| 
G|------------------------------------------------------------9----------9------------| 
D|----------------------------------------------------------9----------9--------------| 
A|---11--11--11--9--7------11--11--11-12-11-9-7------7-7-7------7-7-7-----------------|   x2 
E|------------------------------------------------------------------------------------| 

Chorus 

e|----------|--------------------------------------------------------------------| 
B|----------|--------------------------------------------------------------------| 
G|--7-9-----|----9---------7-----------------------------------------------------| 
D|------7-9-|----9---------7--------7----------4-----7---------------------------|  x2 
A|----------|----7---------5--------7----------4-----7---------------------------| 
E|----------|-----------------------5----------2-----5---------------------------| 

*Repeat verse*  

"I'd never say it..." 

e|-----------------------------------------------------------------------------| 
B|-----------------------------------------------------------------------------| 
G|-----------------------------------------------------------------------------| 
D|---7---------------2----------------7-------------------2--------------------| 
A|---7---------------2----------------7-------------------0--------------------| 
E|---5---------------0----------------5-------------------0--------------------| 

*Repeat Chorus* 

"All time laid out..." 
just repeat these chords until the end  

and at the end I tried to tab the lead but it's buried beneath fuzz so it's tough. 
It's in the ballpark, though. 


e|--------------------------/|----------------|-----------------------| 
B|--------------------------/|----------------|-----------------------| 
G|---9---------------7------/|----9--11-------|----9---13---9---------| 
D|---9---------------7------/|-9----9------9--|-11--------------------| 
A|---7---------------5------/|----------------|-----------------------| 
E|--------------------------/|----------------|-----------------------| 

Thanks for reading my tab! Once again, feel free to leave corrections and suggestions down below.  
Make sure you rate it, even if it's a 1 star; it's just nice to see other Mansions fans out there!!!  


************************************ 
	  

Search Paypal
auto scroll beats size up size down change color hide chords drawings
tab show chords e-chords YouTube Clip e-chords hide all tabs e-chords go to top tab