Manifest

Roda Da Morte

Manifest

tabs

by  IRONPOWER4EVER

save to print version add songbook text version e-mail correct tuner
chordsukulelecavacokeyboardtabbassdrumsharmonicaflute Guitar Pro
close

there isn't a video lesson for this song

chords

Roda Da Morte

	  		Riff 1 


 
E|------------------------------------------------------------- 
B|------------------------------------------------------------- 
G|--4--------------------------4------------------------------- 
D|--4--------------------------4----------------------------4-- 
A|--2--------------------------2----------------------------4-- 
E|-------0--0--0----0--0--0---------0--0--0----0--0--0------2-- 
 


Riff 2 


 
E|-------------------------------------------------- 
B|------------------------------------------------- 
G|----------------------------------------------8-- 
D|--9-------------9--8----9---------------9--8--8-- 
A|--9-------------9--8----9---------------9--8--6-- 
E|--7----0-0-0----7--6----7----0--0--0----7--6----- 
 


Verso 1 


 
E|--------------------------------------- 
B|--------------------------------------- 
G|--------------------------------------- 
D|------8-------------------------------- 
A|--9-8-6------------------------9-8-7--- 
E|--7-6----0-0-0-0-0-0-0-0-0-0-0-7-6-5--- 
 


Verso 2 


 
E|--------------------------------------------- 
B|--------------------------------------------- 
G|-----------------------------------------2--- 
D|-----------------------------------------2--- 
A|-----------------------------------------4--- 
E|--0-0-0-0----0-0-0-0----0-0-0-0----0-0-0----- 
 


Verso 1 

Verso 2 

Refrao 


 
E|-------------------------------------------------------------------- 
B|-------------------------------------------------------------------- 
G|-------------------------------------------------------------------- 
D|-------------------------------------------------------------------- 
A|--2-----------------4---------------------2---------------------9/-- 
E|--0--0-0-0-0-0-0-0--2--0-0-0-0-0-0-0-0-0--0--0-0-0-0-0-0-0-0-0--7/-- 
 


Riff 2 

Verso 1 

Verso 2 

Refrao 

Verso 3 


 
E|---------------------------- 
B|---------------------------- 
G|--2---------------2--------- 
D|--2--4--4---------2--4--3--- 
A|--0--4--4---------0--4--3--- 
E|-----2--2------------2--1--- 
 


Verso 4 


 
E|---------------------------------- 
B|---------------------------------- 
G|---------------------------------- 
D|--4---2---4---2---4---2---4---2--- 
A|--4---2---4---2---4---2---4---2--- 
E|--2---0---2---0---2---0---2---0--- 
		  

auto scroll beats size up size down change color hide chords drawings
tab show chords e-chords YouTube Clip e-chords hide all tabs e-chords go to top tab

share