Manifest

Dancing With Satan

Manifest

tabs

by  RENEJUNIOR

save to print version add songbook text version e-mail correct tuner
chordsukulelecavacokeyboardtabbassdrumsharmonicaflute Guitar Pro
close

there isn't a video lesson for this song

chords

Dancing With Satan

	  		(/) Slide Up  (\) Slide Down  (h) Hammer On  (p) Pull Off  (b) Bend (r) Release (v) Vibrato 

E|-------------------------------------|-- 
B|-------------------------------------|-- 
G|-------------------------------------|-- 
D|-------------------------------------|-- 
A|--2----2--2--2--2--2--2--2--1--1-----|-- 
E|--0----0--0--0--3--3--3--3--2--2/5v--|-- 


E|----------------------------------|-- 
B|----------------------------------|-- 
G|----------------------------------|-- 
D|--4----4--4--4--5--5--5--5--9--7--|-- 
A|--2----2--2--2--3--3--3--3--7--5--|-- 
E|----------------------------------|-- 


E|-----------------------------|-- 
B|-----------------------------|-- 
G|-----------------------------|-- 
D|--4----4--4--4---------------|-- 
A|--2----2--2--2--2------------|-- 
E|----------------0------------|-- 


E|-----------------------------|----- 
B|-----------------------------|----- 
G|--4----------4---------------|----- 
D|--4----4--4--4---------------|----- 
A|--2----2--2--2--2------------|----- 
E|----------------0------------|----- 


E|--------------------------------------|-- 
B|--------------------------------------|-- 
G|--4--------7--4--------------4-5\4----|-- 
D|--4-----------------------------------|-- 
A|--2--2--2--5--2--2--2--2--2--2/3-2----|-- 
E|-----0--0--------0--0--0--0-----------|-- 


E|---------------------------------------|-- 
B|---------------------------------------|-- 
G|--------------7--4--------------4/5-4--|-- 
D|---------------------------------------|-- 
A|--2--2--2--2--5--2--2--2--2--2--2-3\2--|-- 
E|--0--0--0--0--------0--0--0--0---------|-- 


E|------------------------------------|-- 
B|------------------------------------|-- 
G|--------------7----------------4----|-- 
D|------------------------------------|-- 
A|--2--2--2--2--5----2--2--2--2--2----|-- 
E|--0--0--0--0-------0--0--0--0-------|-- 


E|---------------------|--------------------------|-- 
B|---------------------|--------------------------|-- 
G|---------------------|--------------------------|-- 
D|--------------12\10--|-----9\7-----5\4-----5/7--|-- 
A|--2------------------|--------------------------|-- 
E|--0--0--0--0--10-8---|--0--7-5--0--3-2--0--3-5--|-- 


E|------------------|-- 
B|------------------|-- 
G|------------------|-- 
D|-----5\4-----5/7--|-- 
A|------------------|-- 
E|--0--3-2--0--3-5--|-- 
							 
		  

auto scroll beats size up size down change color hide chords drawings
tab show chords e-chords YouTube Clip e-chords hide all tabs e-chords go to top tab

share