Manic Drive

Nebulous

Manic Drive

tabs

by  ANTO84

save to print version add songbook text version e-mail correct tuner
chordsukulelecavacokeyboardtabbassdrumsharmonicaflute Guitar Pro
close

there isn't a video lesson for this song

chords

Nebulous

	  		Tabbed : Anto84 

Clean + Wah 

		(INTRO) 


D|----------------------------------------------| 
A|----------------------------------------------| 
F|----------------------------------------------| 
C|--x-x-2h4-0--x-x-2h4-0--x-x-0h1---------------| x3 
G|--x-x-2h4-0--x-x-2h4-0--x-x-0h1---------------| 
C|--x-x-2h4-0--x-x-2h4-0--x-x-0h1---------------| 



D|-------------| 
A|-------------| 
F|-------------| 
C|--x-x-2h4-0--|  
G|--x-x-2h4-0--| 
C|--x-x-2h4-0--| 


Distortion 


D|----------------------------------------------|      <-----| 
A|----------------------------------------------|	     | 
F|----------------------------------------------|            | 
C|--x-x-2h4-0--x-x-2h4-0--x-x-0h1---------------| x3         | 
G|--x-x-2h4-0--x-x-2h4-0--x-x-0h1---------------|            | 
C|--x-x-2h4-0--x-x-2h4-0--x-x-0h1---------------|            | 
							     |     x2 
							     | 
D|-------------------|				             | 
A|-------------------|					     | 
F|-------------------|					     | 
C|--7-7-7--9-9-9-5---|                                       | 
G|--7-7-7--9-9-9-5---|					     | 
C|--7-7-7--9-9-9-5---|				       <-----| 



					(VERSE) 


D|----------------| 
A|----------------| 
F|----------------| 
C|----------------|  X4 
G|----------------| 
C|--4--2--1--0----| 



D|----------------| 
A|----------------| 
F|----------------| 
C|--1////////-----|   
G|--1////////-----| 
C|--1////////-----| 



					(Chorus) 





D|----------------------------------------------|     <------| 
A|----------------------------------------------|	     | 
F|----------------------------------------------|            | 
C|--x-x-2h4-0--x-x-2h4-0--x-x-0h1---------------| x3         | 
G|--x-x-2h4-0--x-x-2h4-0--x-x-0h1---------------|            | 
C|--x-x-2h4-0--x-x-2h4-0--x-x-0h1---------------|            | 
							     |     x2 
							     | 
D|-------------------|				             | 
A|-------------------|					     | 
F|-------------------|					     | 
C|--7-7-7--9-9-9-5---|                                       | 
G|--7-7-7--9-9-9-5---|					     | 
C|--7-7-7--9-9-9-5---|				       <-----| 





					(VERSE) 


D|----------------| 
A|----------------| 
F|----------------| 
C|----------------|  X6 
G|----------------| 
C|--4--2--1--0----| 



D|----------------| 
A|----------------| 
F|----------------| 
C|--1////////-----|   
G|--1////////-----| 
C|--1////////-----| 



Repeat Chorus 


					(BRIDGE) 



D|-------------|------------------------------------------|      <-----| 
A|-------------|------------------------------------------|	       | 
F|-------------|------------------------------------------|	       | 
C|-15-15-15-15-|--4-4-4-4--7-7--12-12-12-12--11-11-11-11--|	       | 
G|-15-15-15-15-|--4-4-4-4--7-7--12-12-12-12--11-11-11-11--|	       | 
C|-15-15-15-15-|--4-4-4-4--7-7--12-12-12-12--11-11-11-11--|	       | 
							               |    X2 
							               | 
D|------------------------------------------|		               |  
A|------------------------------------------|  		               |  
F|------------------------------------------|		               | 
C|--4-4-4-4--7-7--12-12-12-12--15-15-15-15--|		               | 
G|--4-4-4-4--7-7--12-12-12-12--15-15-15-15--|		               | 
C|--4-4-4-4--7-7--12-12-12-12--15-15-15-15--|	                 <-----| 


(guitar2) 

D|-------------| 
A|-------------| 
F|-------------| 
C|------6-5-6--|  x16 
G|--9-9--------| 
C|-------------| 



Repeat Chorus 


Repeat VERSE


if there are any comments or errors  
e-mail me at [email protected]
		  

See also:

tabs Vineyard - Senhor Te Quero tabs Chris Tomlin - Holy Is The Lord tabs FFH - every now and then tabs Bleach - Chu-bura tabs Building 429 - Glory Defined (ver. 2) tabs Kutless - We Fall Down
e-chords

Other versions:

tabs Manic Drive - Nebulous
auto scroll beats size up size down change color hide chords drawings
tab show chords e-chords YouTube Clip e-chords hide all tabs e-chords go to top tab

share