Man Overboard

Where I Left You

Man Overboard

tabs

by  LINEKERS

save to print version add songbook text version e-mail correct tuner
chordsukulelecavacokeyboardtabbassdrumsharmonicaflute Guitar Pro
close

there isn't a video lesson for this song

chords

Where I Left You

	  		Awesome song from the new album, everything tabbed in drop D. This song is  
probably played in Eb as most other MO songs are, but it works just as well. 


e|-------------------| 
B|-------------------| 
G|--3-3-3-3-3-3...---| 
D|---1-1-1-1-1-1...--| < This is repeated throughout the entire 
A|-------------------|   song on a third guitar 
D|-------------------| 


============================================================================ 
                              GUITAR 1 - RHYTHM 
============================================================================ 

Intro + verse 1: 
e|-----------------------------------------------------------| 
B|-----------------------------------------------------------| 
G|-----------------------------------------------------------| < Repeat 
D|--8~~------------------------------------------------5~~---|   these two 
A|--6~~------------------------------------------------3~~---|   chords 
D|-----------------------------------------------------------| 
        Walkin' on the grass and I've never seen this town.. 


Chorus 1: 
e|--------------------------------------| 
B|--------------------------------------| X2 
G|--------------------------------------| 
D|--8888888888888888-55555555-66666666--| 
A|--6666666666666666-33333333-66666666--| 
D|----------------------------66666666--| 


verse 2: 
(Same as verse 1) 


Chorus 2: 
e|---------------------------------------------------------------------| 
B|---------------------------------------------------------------------| X2 
G|---------------------------------------------------------------------| 
D|--8-8-8-8-8-8-8-8-8-8-8-8-8-8-8-8-1212121212121212-1313131313131313--| 
A|--6-6-6-6-6-6-6-6-6-6-6-6-6-6-6-6-1010101010101010-1111111111111111--| 
D|---------------------------------------------------------------------| 


Breakdown: 
e|---------------------------------------------| 
B|---------------------------------------------| 
G|---------------------------------------------| 
D|--8~--5~--8~--5~--8~--5~--88888888-5555555x--| 
A|--6~--3~--6~--3~--6~--3~--66666666-3333333x--| 
D|---------------------------------------------| 
                            ******** ******* 
e|---------------------------------------------------------------------| 
B|---------------------------------------------------------------------| X2 
G|---------------------------------------------------------------------| 
D|--8-8-8-8-8-8-8-8-8-8-8-8-8-8-8-8-1212121212121212-1313131313131313--| 
A|--6-6-6-6-6-6-6-6-6-6-6-6-6-6-6-6-1010101010101010-1111111111111111--| 
D|---------------------------------------------------------------------| 


Chorus 3: 
(Same as Chorus 2)... 
...then finish on: 
e|------| 
B|------| 
G|------| 
D|--8~--| 
A|--6~--| 
D|------| 

============================================================================ 
                               GUITAR 2 - LEAD 
============================================================================ 

Intro + Verses: (Really faint behind chords) 
e|------------------------------------| 
B|-----8~-----------------------------| 
G|--8~-8~----7h8-8~---12-10-7h8-8~----| Repeat as many times 
D|------------------------------------| as necessary  
A|------------------------------------| 
D|------------------------------------| 

Choruses: 
e|------------------------|--------------------|----------------------------| 
B|--------------11--------|--------------------|----------------------------| 
G|-12-101010-12---12-10-8-|-121212121212121212-|-12-1212-10-8--12-1212-10-8-| 
D|------------------------|--------------------|----------------------------| 
A|---------------------X2-|--------------------|----------------------------| 
D|------------------------|--------------------|----------------------------| 

e|------------------------|--------------------|----------------------------| 
B|--------------11--------|--------------------|----------------------------| 
G|-12-101010-12---12-10-8-|-121212121212121212-|-13-1212-10-8--13-1212-10-8-| 
D|------------------------|--------------------|----------------------------| 
A|---------------------X2-|--------------------|----------------------------| 
D|------------------------|--------------------|----------------------------| 

Breakdown: 

(First half of the breakdown is silent) 

e|---------------------------------------------------------------------| 
B|---------------------------------------------------------------------| X2 
G|--8-8-8-8-8-8-8-8-8-8-8-8-8-8-8-8-1212121212121212-1313131313131313--| 
D|--x-x-x-x-x-x-x-x-x-x-x-x-x-x-x-x--x-x-x-x-x-x-x-x--x-x-x-x-x-x-x-x--| 
A|--6-6-6-6-6-6-6-6-6-6-6-6-6-6-6-6-1010101010101010-1111111111111111--| 
D|---------------------------------------------------------------------| 
   Broken hearts and fading memories... 

Final Chorus: 
e|-------------------------------------------------------------------------------| 
B|-------------------------------------------------------------------------------| X2 
G|--8888888888888888888888888888-7777-888888888888888888888888-1010101010101010--| 
D|--xxxxxxxxxxxxxxxxxxxxxxxxxxxx-xxxx-xxxxxxxxxxxxxxxxxxxxxxxx-x-x-x-x-x-x-x-x---| 
A|--6666666666666666666666666666-5555-666666666666666666666666-8-8-8-8-8-8-8-8---| 
D|-------------------------------------------------------------------------------| 
    Hey! I want you to stay... 

Please rate + comment for any corrections, thanks DR~ 
		  

Full key step upFull key step up
Half key step upHalf key step up
Half key step downHalf key step down
Full key step downFull key step down
auto scroll beats size up size down change color hide chords drawings
tab show chords e-chords YouTube Clip e-chords hide all tabs e-chords go to top tab

share