Man Overboard

Night Feelings

Man Overboard

tabs

by  ALYSLIMA

save to print version add songbook text version e-mail correct tuner
chordsukulelecavacokeyboardtabbassdrumsharmonicaflute Guitar Pro
close

there isn't a video lesson for this song

chords

Night Feelings

	  		

Intro: 

Guitar 1 
 D#|---------------------------------------------------------------------------|  
 A#|--------7h8------7h8------7h8-------/12-------7h8---7h8------8~~~----------|  
 F#|---------------------------------------------------------------------------|  
 C#|---------------------------------------------------------------------------|  
 G#|---------------------------------------------------------------------------|  
 C#|---------------------------------------------------------------------------|  

Guitar 2 
 D#|---------------------------------------------------------------------------|  
 A#|---------------------------------------------------------------------------|  
 F#|-5-----------------7--------------9~---------------------------------------|  
 C#|-5-----------------7--------------9~(hold   out   2nd   time)--------------------|  
 G#|-3-----------------5--------------7~---------------------------------------|  
 C#|---------------------------------------------------------------------------|x2  

Verse: 
Guitar 1&2 
 D#|---------------------------------------------------------------------------|  
 A#|---------------------------------------------------------------------------|  
 F#|--5--------------7-----------------9-99-7/9--9-99-7/9----------------------|  
 C#|--5--------------7-----------------9-99-7/9--9-99-7/9----------------------|  
 G#|--3--------------5-----------------7-77-5/7--7-77-5/7----------------------|  
 C#|---------------------------------------------------------------------------|x4  (last 
2 time just hold out the 799) 

Pre-Chorus 
Guitar 1 
 D#|---------------------------------------------------------------------------|  
 A#|---------------------------------------------------------------------------|  
 F#|--------------7~----------9~-----------------------------------------------|  
 C#|--5\----------7~----------9~-----------------------------------------------|  
 G#|--5\----------5~----------7~-----------------------------------------------|  
 C#|--5\-----------------------------------------------------------------------|x2  

 D#|---------------------------------------------------------------------------|  
 A#|---------------------------------------------------------------------------|  
 F#|----5------------------7--------------9------------------------------------|  
 C#|----5------------------7--------------9-------------------2----------------|  
 G#|----3------------------5--------------7-------------------2----------------|  
 C#|----------------------------------------------------------2----------------|x2  
       . . . . . . . . . . . . . . . . . .                  (^ do this on the second time) 

Chorus: 
Guitar 1 
 D#|---------------------------------------------------------------------------|  
 A#|---------------------------------------------------------------------------|  
 F#|-----------5------------9----------5---------------------------------------|  
 C#|--5--------5------------9----------5---------------------------------------|  
 G#|--5--------3------------7----------3---------------------------------------|  
 C#|--5------------------------------------------------------------------------|x2  


2nd Verse: 
Guitar 1 
 D#|---------------------------------------------------------------------------|  
 A#|---------------------------------------------------------------------------|  
 F#|--5--------------7-----------------9-99-7/9--9-99-7/9----------------------|  
 C#|--5--------------7-----------------9-99-7/9--9-99-7/9----------------------|  
 G#|--3--------------5-----------------7-77-5/7--7-77-5/7----------------------|  
 C#|---------------------------------------------------------------------------|x4  (last 
2 time just hold out the 799) 

Guitar 2 
Listen for the timing 
 D#|---------------------------------------------------------------------------|  
 A#|---7h8-----7h8-------------------------------------------------------------|  
 F#|---------------------------------------------------------------------------|  
 C#|---------------------------------------------------------------------------|  
 G#|---------------------------------------------------------------------------|  
 C#|---------------------------------------------------------------------------|  

Pre-Chorus 
Guitar 1 
 D#|---------------------------------------------------------------------------|  
 A#|---------------------------------------------------------------------------|  
 F#|--------------7~----------9~-----------------------------------------------|  
 C#|--5\----------7~----------9~-----------------------------------------------|  
 G#|--5\----------5~----------7~-----------------------------------------------|  
 C#|--5\-----------------------------------------------------------------------|x2  

 D#|---------------------------------------------------------------------------|  
 A#|---------------------------------------------------------------------------|  
 F#|----5----------------------------------------------------------------------|  
 C#|----5------------------0--------------2------------------------------------|  
 G#|----3------------------0--------------2------------------------------------|  
 C#|-----------------------0--------------2------------------------------------|x2  
       . . . . . . . . . . . . . . . . . .        (for the second time, listen for the 
palm-muting pattern) 


Guitar 1 
 D#|---------------------------------------------------------------------------|  
 A#|---------------------------------------------------------------------------|  
 F#|-----------5------------9----------5--------------------------------9~-----|  
 C#|--5--------5------------9----------5--------------------------------9~-----|  
 G#|--5--------3------------7----------3--------------------------------7~-----|  
 C#|--5------------------------------------------------------------------------|x2  
                                                                 (do 799 on the second time) 

Pre-bridge: 
Guitar 1 
Listen for pattern 
 D#--------------------------------------------------------------------------|  
 A#|-------------------------------------------------------------------------|  
 F#|------7-----------5------------------------------------------------------|  
 C#|-2----7-----5-----5------------------------------------------------------|  
 G#|-2----5-----5-----3------------------------------------------------------|  
 C#|-2----------5------------------------------------------------------------|x2  
    . . . . . . . . . . 


 D#|---------------------------------------------------------------------------|  
 A#|---------------------------------------------------------------------------|  
 F#|-----------5~----------9~-----------5~-------------------------------------|  
 C#|-5~--------5~----------9~-----------5~-------------------------------------|  
 G#|-5~--------3~----------7~-----------3~-------------------------------------|  
 C#|-5~------------------------------------------------------------------------|  

Chorus: 
Guitar 1 
Listen for pattern 
 D#|---------------------------------------------------------------------------|  
 A#|---------------------------------------------------------------------------|  
 F#|-----------5------------9----------5---------------------------------------|  
 C#|--5--------5------------9----------5---------------------------------------|  
 G#|--5--------3------------7----------3---------------------------------------|  
 C#|--5------------------------------------------------------------------------|x1  

Outro: 
Guitar 1 
 D#|---------------------------------------------------------------------------|  
 A#|---------------------------------------------------------------------------|  
 F#|--9----------7------------5------------------------------------------------|  
 C#|--9----------7------------5------------------------------------------------|  
 G#|--7----------5------------3------------------------------------------------|  
 C#|---------------------------------------------------------------------------|  

Guitar 2 
Listen for timing, it's faint, but you can hear it 
 D#|---------------------------------------------------------------------------|  
 A#|-------8-7-----------8-7----------8-7--------------------------------------|  
 F#|-----------10-------------10-----------------------------------------------|  
 C#|---------------------------------------------------------------------------|  
 G#|---------------------------------------------------------------------------|  
 C#|---------------------------------------------------------------------------|  

Guitar 1 
 D#|--------------|  
 A#|--------------|  
 F#|--------------|  
 C#|---5~---------|  
 G#|---5~---------|  
 C#|---5~---------|  
		  

auto scroll beats size up size down change color hide chords drawings
tab show chords e-chords YouTube Clip e-chords hide all tabs e-chords go to top tab

share