Make Me Famous

Inception

Make Me Famous

tabs Expert expert

by  VSWORLD

save to print version add songbook text version e-mail correct tuner
chordsukulelecavacokeyboardtabbassdrumsharmonicaflute Guitar Pro
close

there isn't a video lesson for this song

chords

Inception

	  		 

INTRO: 
 
D|-------------------| |---| 
A|----------6--------| |-6-| 
F|-7--------7--------| |-7-| 
C|-8--------8--------| |-8-| 
G|-5-----------------| |-5-| 
C|-------------------| |---| 

  RHYTHM: 
D|-------------------| 
A|-------------------| 
F|-7--------7--------| 
C|-8--------8--------| 
G|-5--------5--------| 
C|-------------------| 

  VERSE: 
D|----------------------------------------------| 
A|----------------------------------------------| 
F|----------------------------------------------| 
C|----------------------------------------------| 
G|-000--000--00-00-0-000--000-0--000-0000-0-000-| 
C|-000--000--00-00-0-000--000-0--000-0000-0-000-| 
   ***  ***  ** ** * *** *** *  *** **** * *** 
D|---------------------------------------------------------| 
A|---------------------------------------------------------| 
F|---------------------------------------------------------| 
C|---------------------------------   PICK FAST  --------| 
G|-000--000--00-00-0-000-000-0--000-0000-0000-0000-0-0-0-0-| 
C|-000--000--00-00-0-000-000-0--000-0000-0000-0000-0-0-0-0-| 
   ***  ***  ** ** * *** *** *  *** **** **** **** * * * * 
D|----------------------------------------------| 
A|----------------------------------------------| 
F|----------------------------------------------| 
C|----------------------------------------------| 
G|-000--000--00-00-0-000-000--0--000-0000-0-000-| 
C|-000--000--00-00-0-000-000--0--000-0000-0-000-| 
   ***  ***  ** ** * *** ***  *  *** **** * *** 
D|----------------------------------------------| 
A|----------------------------------------------| 
F|----------------------------------------------| 
C|----------------------------------------------| 
G|-000--000--00-00-0-000-000--0--000-0000-0-000-| 
C|-000--000--00-00-0-000-000--0--000-0000-0-000-| 
   ***  ***  ** ** * *** ***  *  *** **** * *** 
  PRE-CHORUS: 
D|-------------------------------------| 
A|-------------------------------------| 
F|-------------------------------------| 
C|-0--------3--------8--------5--------| 
G|-0--------3--------8--------5--------| 
C|-0--------3--------8--------5--------| 

  CHORUS: 
D|---------------------------------------| 
A|---------------------------------------| 
F|---------------------------------------| 
C|-0-------3-------8-------3------5------| 
G|-0-(x16)-3-(x16)-8-(x16)-3-(x8)-5-(x8)-| 
C|-0-------3-------8-------3------5------| 

D|---------------------------------| 
A|---------------------------------| 
F|---------------------------------| 
C|-0-------3-------8-------7-------| 
G|-0-(x16)-3-(x16)-8-(x16)-7-(x16)-| 
C|-0-------3-------8-------7-------| 

VERSE 2: 
D|--------------| 
A|--------------| 
F|--------bph1r-| 
C|--------------| 
G|--------------| 
C|000-----------| 
  *** 
D|-------------------------------------------------------------| 
A|-------------------------------------------------------------| 
F|-------------------------------------------------------------| 
C|-------------------------------------------------------------| 
G|-0--0--0-00-000-00-0-0-00-00-0-00-0000-00-00--000-0----------| 
C|-0--0--0-00-000-00-0-0-00-00-0-00-0000-00-00--000-0---etc.---| 
   *  *  * ** *** ** * * ** ** * ** **** ** **  *** * 
D|-----------------------------------------| 
A|-----------------------------------------| 
F|-----------------------------------------| 
C|-0--0--0-00-000-00--00-00-0--000--00-0-0-| 
G|-0--0--0-00-000-00--00-00-0--000--00-0-0-| 
C|-1--1--1-11-111-11--11-11-1--111--11-1-1-| 
   *  *  * ** *** **  ** ** *  ***  ** * * 
D|--------------------------------------------| 
A|--------------------------------------------| 
F|--------------------------------------------| 
C|--------------------------------------------| 
G|-0--0--0-00-000-00-0-0-000-0-00-000-00-00-0-| 
C|-0--0--0-00-000-00-0-0-000-0-00-000-00-00-0-| 
   *  *  * ** *** ** * * *** * ** *** ** ** * 
  TYLER CARTER VERSE: (Pretty sure this pattern is wrong,so you'll have to 
                       figure out the correct pattern) 
D|-------------------------------------------------------------------| 
A|-------------------------------------------------------------------| 
F|-------------------------------------------------------------------| 
C|-0-0-00-000-00-00-0-00-8-8-88-888-88-88-8-88-5-5-55-555-55-55-5-55-| 
G|-0-0-00-000-00-00-0-00-8-8-88-888-88-88-8-88-5-5-55-555-55-55-5-55-| 
C|-0-0-00-000-00-00-0-00-8-8-88-888-88-88-8-88-5-5-55-555-55-55-5-55-| 
   * * ** *** ** ** * ** * * ** *** ** ** * ** * ** ** *** ** **  ** 
D|-----------------------| 
A|-----------------------| 
F|-----------------------| 
C|-3-3-33-333-33-33-3-33-| 
G|-3-3-33-333-33-33-3-33-| 
C|-3-3-33-333-33-33-3-33-| 
   * * ** *** ** ** * ** 
D|-------------------------------------------------------------------| 
A|-------------------------------------------------------------------| 
F|-------------------------------------------------------------------| 
C|-0-0-00-000-00-00-0-00-5-5-55-555-55-55-5-55-8-8-88-888-88-88-8-88-| 
G|-0-0-00-000-00-00-0-00-5-5-55-555-55-55-5-55-8-8-88-888-88-88-8-88-| 
C|-0-0-00-000-00-00-0-00-5-5-55-555-55-55-5-55-8-8-88-888-88-88-8-88-| 
   * * ** *** ** ** * ** * * ** *** ** ** * ** * * ** *** ** ** * ** 
D|-----------------------| 
A|-----------------------| 
F|-----------------------| 
C|-3-3-33-333-33-33-3-33-| 
G|-3-3-33-333-33-33-3-33-| 
C|-3-3-33-333-33-33-3-33-| 
   * * ** *** ** ** * ** 
                          ELECTRONIC BREAK 

OUTRO: 
D|-------------------------------------------------------| 
A|-------------------------------------------------------| 
F|-------------------------------------------------------| 
C|-------------------------------------------------------| 
G|-000---000---00--00--0-000--000--0--000-00000000-0-000-| 
C|-000---000---00--00--0-000--000--0--000-00000000-0-000-| 
   ***   ***   **  **  * ***  ***  *  *** ******** * *** 
D|---------------------------------------------------------------| 
A|---------------------------------------------------------------| 
F|---------------------------------------------------------------| 
C|---------------------------------------  PICK FAST  ---------| 
G|-000---000---00--00--0-000--000--0--000-0000-0000-0000-0-0-0-0-| 
C|-000---000---00--00--0-000--000--0--000-0000-0000-0000-0-0-0-0-| 
   ***   ***   **  **  * ***  ***  *  *** **** **** **** * * * * 
D|-------------------------------------------------------| 
A|-------------------------------------------------------| 
F|-------------------------------------------------------| 
C|-------------------------------------------------------| 
G|-000---000---00--00--0-000--000--0--000-00000000-0-000-| 
C|-000---000---00--00--0-000--000--0--000-00000000-0-000-| 
   ***   ***   **  **  * ***  ***  *  *** ******** * *** 
D|-------------------------------------------------------| 
A|-------------------------------------------------------| 
F|-------------------------------------------------------| 
C|-------------------------------------------------------| 
G|-000---000---00--00--0-000--000--0--000-00000000-0-000-| 
C|-000---000---00--00--0-000--000--0--000-00000000-0-000-| 
   ***   ***   **  **  * ***  ***  *  *** ******** * *** 

 
		  

See also:

tabs The Doors - People Are Strange tabs The Strokes - Reptilia(completa) tabs Kiss - Rock and roll all night tabs The Wonders - That Thing You Do tabs Live - Lightning Crashes tabs Jack Johnson - Breakdown
e-chords

Other versions:

tabs Make Me Famous - Inception tabs Trivium - Inception Of The End
auto scroll beats size up size down change color hide chords drawings
tab show chords e-chords YouTube Clip e-chords hide all tabs e-chords go to top tab

share with facebook