Mago De Oz

Santo Grial

Mago De Oz

tabs

by  SABRJOAO

save to print version add songbook text version e-mail correct tuner
chordsukulelecavacokeyboardtabbassdrumsharmonicaflute Guitar Pro
close

there isn't a video lesson for this song

chords

Santo Grial

	  		bueno aqui les hize el solo de guitarra de el santo grial, no es díficil, pero si realmente son 
unos cabrones lo tocaran perfectamente.(quizas hay algun error en algun numero, de ahí me corrigen) 
la canción se la dedico a todos los guitarristas que no comparten sus conocimientos. 


   T          T          T          T           T          T          T          T 
E------------------------------------------------------------------------------------------- 
B------------------------------------------------------------------------------------------- 
G--15-12h7h12-15-12h7h12-15-12h7h12-15-12h7h12--15-12h8h12-15-12h8h12-15-12h8h12-15-12h8h12- 
D------------------------------------------------------------------------------------------- 
   T          T          T          T           T           T           T           T    esto va cantado. 
E----------------------------------------------------------------------------------------------- 
B----------------------------------------------------------------------------------------------- 
G--15-12h7h12-15-12h7h12-15-12h7h12-15-12h7h12--17-14h10h14-17-14h10h14-17-14h10h14-17-14h10h14- 
D----------------------------------------------------------------------------------------------- 
                                                                                                    T= Tapping 


   T          T          T          T           T          T          T          T 
E--13-10h6h10-13-10h6h10-13-10h6h10-13-10h6h10--15-10h6h10-15-10h6h10-15-10h6h10-15-10h6h10- 
B------------------------------------------------------------------------------------------- 
   T          T          T          T           T        T          T          T          y esto va solo con bajo. 
E--13-10h6h10-13-10h6h10-13-10h6h10-13-10h6h10--13-8h5h8-13-10h6h10-13-10h6h10-13-10h6h10- 
B----------------------------------------------------------------------------------------- 



                       T        T        T 
--------------------------------------------------------------------------- 
--------------------------------------------------------------------------- 
-/5-7-7--5---7-------7-10-7h5h7-10-7h5h7----------------------------------- 
-----------8---8-7-5---------------------10-8h5h8--10^-8h7h8-10^-8-7------- 
--------------------------------------------------------------------10^----     ^= full 
--------------------------------------------------------------------------- 

------------------------------------------------------------------------------- 
-------------------------------------------------6----------------6-6/11-11-13- 
-------------------------------------------5-7-8---7-5------5-7-8-------------- 
--------------3-------------------3--5-7-8--------------7-8-------------------- 
--------3-5-6---6-5-3-------3-5-6---------------------------------------------- 
--3-5-6----------------5-6----------------------------------------------------- 

-10-11-13-11-10---------------------------------------------------------- 
----------------11-10-11-11-10----10------------------------------------- 
-------------------------------12----12-10--8-8-10-8-7--------7-8-10-10-- 
-------------------------------------------------------7-8-10------------ 
------------------------------------------------------------------------- 
------------------------------------------------------------------------- 


   T        T        T        T        T        T        T        T        T        T 
E--10-6h3h6-10-6h3h6-10-6h3h6-11-6h3h6-10-6h3h6-10-6h3h6-10-6h3h6-10-6h3h6-11-6h3h6-10-6h3h6--- 
B---------------------------------------------------------------------------------------------- 

   T          T          T          T          T           T           T           T           T           T 
E--13-10h6h10-13-10h6h10-13-10h6h10-15-10h6h10-13-10h6h10--17-13h10h13-17-13h10h13-17-13h10h13-18-13h10h13-17-13h10h13-- 
B----------------------------------------------------------------------------------------------------------------------- 


--15-14----15---------------------------------------------------------------------------------- 
--------16-----16-15-16-15-13-----15-13-----------13------------------------------------------- 
------------------------------15--------15-14--15----15-14--15-14-12----12--12-12-12-12-/15-15- 
---------------------------------------------------------------------15------------------------ 
----------------------------------------------------------------------------------------------- 
----------------------------------------------------------------------------------------------- 

--15--14-15--14-15-17-15----14-15-14----15------------------14------------------ 
-------------------------16----------16----16-15-(13)-15-16----16-15-(13)-15-16- 
--------------------------------------------------17------------------17-------- 
-------------------------------------------------------------------------------- 
-------------------------------------------------------------------------------- 
-------------------------------------------------------------------------------- 

-14-15-17-17h15h14----14-15-14----14---------------- 
-------------------16----------16----16-15-13-15-15- 
---------------------------------------------------- 
---------------------------------------------------- 
---------------------------------------------------- 
---------------------------------------------------- 

E--------------------------------------------------15-15-15-15-17-17-17-17-18-18-18-18-20-20-20-20-20^-20^-20-18-20/22-- 
B--13-13-13-13-15-15-15-15-16-16-16-16-18-18-18-18---------------------------------------------------------------------- 


----------------------10-8----------------------------------------------------- 
--8--8-8-8-10-11-----------11-10--10-10-10h11-10----8-----------------8-10-8^-- 
-----------------8--8----------------------------10------------7-8-10---------- 
--------------------------------------------------------7-8-10----------------- 
------------------------------------------------------------------------------- 
------------------------------------------------------------------------------- 

----------------------10-8-----------------------------------------------------/----- 
--8--8-8-8-10-11-----------11-10--10-10-10h11-10----8---10-8-------------------/----- 
-----------------8--8----------------------------10----------10-8-7------------/----- 
--------------------------------------------------------------------10-8-7-----/--5-- 
---------------------------------------------------------------------------10^-/--3-- 
-------------------------------------------------------------------------------/----- 


el solo de violin, bien saben que a un guitarrista no le sirve de mucho, 
por eso aqui esta la guitarra que va junto a este solo. pm= Palm Mute 

pm-------------------------------------------------------------------------------------------------------------------- 

---------------------------------------------------------------------------------------------------------------------- 
---------------------------------------------------------------------------------------------------------------------- 
---------------------------------------------------------------------------------------------------------------------- 
---------------------------------------------------------------------------------------------------------------------- 
------------------5-5-5-5-5-5-5-5-----------------------------6-6-6-6-5-5-5-5-3-3-3-3-----------------5-5-5-5--------- 
--3-3-3-3-3-3-3-3-----------------5-5-5-5-5-5-5-5-6-6-6-6-6-6-------------------------6-6-6-6-5-5-5-5---------3-3-3-3- 

pm----------------------------------------------------------- 

------------------------------------------------------------------------------ 
------------------------------------------------------------------------------ 
------------------------------------------------------------------------------ 
---------------------------------------------------------------8-7-5-----7---- 
------------------5-5-5-5-5-5-5-5------------------------------6-5-3-8-7-5-5-- 
--3-3-3-3-3-3-3-3-----------------5-5-5-5-5-5-5-5-6-6-6-6-6-6--------6-5---3-- 

pm---------------------------------------------------------------- 

------------------------------------------------------------------------------- 
------------------------------------------------------------------------------- 
------------------------------------------------------------------------------- 
------------------------------------------------------------------------------- 
--5-5-5-5-5-5-5-5-6-6-6-6-6-6-6-6-5-5-5-5-3-3-3-3--3-3-3-3-3-3-3-3------------- 
------------------------------------------------------------------------------- 

pm---------------------------------------------------------------- 

------------------------------------------------------------------------------- 
------------------------------------------------------------------------------- 
------------------------------------------------------------------------------- 
------------------------------------------------------------------------------- 
--3-3-3-3-3-3-3-3-5-5-5-5-5-5-5-5-3-3-3-3-------------------------------------- 
------------------------------------------6-6-6-6--6-6-6-6-6-6-6-6------------- 

pm---------------------------------------------------------------- 

------------------------------------------------------------------------------- 
------------------------------------------------------------------------------- 
------------------------------------------------------------------------------- 
------------------------------------------------------------------------------- segunda parte 
------------------3-3-3-3-3-3-3-3---------------------------------------------- 
--5-5-5-5-5-5-5-5-----------------5-5-5-5-3-3-3-3--3-3-3-3-3-3-3-3------------- 

--10---------------------------- 
---------7-8-8--7-8-10-8-7-10-8- 
-----7-9------------------------ 
-------------------------------- 
-------------------------------- 
-------------------------------- 

-------------------------- 
-------------------------- 
-------------------------- 
--8-7-5------------------- 2 veces 
--------8--6-5-------5---- 
---------------8-6-5---3-- 


bUENO... CREO QUE ESO ESTO Y DISFRUTENLA, HE PENSADO HEN HACER EL SOLO DE LA VENGANZA DE GAIA, 
Pero ya va. chao 
		  

See also:

tabs Mago De Oz - Ancha es castilla tabs La Oreja de Van Gogh - V.s.o. tabs Ana Gabriel - Fgbh Gj tabs Avalanch - Torquemada tabs Avalanch - La Llama Eterna tabs Mago De Oz - Pensando En Ti
e-chords

Other versions:

tabs Mago De Oz - Santo Grial
auto scroll beats size up size down change color hide chords drawings
tab show chords e-chords YouTube Clip e-chords hide all tabs e-chords go to top tab

share