Maglore

Invejosa

Maglore

tabs

by  IRONPOWER4EVER

save to print version add songbook text version e-mail correct tuner
chordsukulelecavacokeyboardtabbassdrumsharmonicaflute Guitar Pro
close

there isn't a video lesson for this song

chords

Invejosa

Key:  Gm More
Invejosa Key DmDm
Invejosa Key D#mD#m
Invejosa Key EmEm
Invejosa Key FmFm(one step down)
Invejosa Key F#mF#m(half step down)
Invejosa Key GmGm(original key)
Invejosa Key G#mG#m(half step up)
Invejosa Key AmAm(one step up)
Invejosa Key A#mA#m
Invejosa Key BmBm
Invejosa Key CmCm
Invejosa Key C#mC#m
	  		
E|--10--13--10----------10-------------- 
B|--------------13--10------13--10------ 
G|-------------------------------------- 
D|-------------------------------------- 
A|-------------------------------------- 
E|-------------------------------------- 
 
 
     Gm7                   Gm7 
E|--10--------13--10------10------------ 
B|--11----13----------13--11------------ 
G|--10--------------------10------------ 
D|--12--------------------12------------ 
A|--10--------------------10------------ 
E|-------------------------------------- 
 
 
     Am7                   Am7 
E|--12--------15--12------12------------ 
B|--13----15----------15--13------------ 
G|--12--------------------12------------ 
D|--14--------------------14------------ 
A|--12--------------------12------------ 
E|-------------------------------------- 
 
 
     Gm7                   Gm7 
E|--10--------13--10------10------------ 
B|--11----13----------13--11------------ 
G|--10--------------------10------------ 
D|--12--------------------12------------ 
A|--10--------------------10------------ 
E|-------------------------------------- 
 


(Parte 1) 

    â??   â??    â??   â??         â??     â??  
 
     Dm7                Gm7 
E|--10--10---10--10--------10----10----- 
B|--10--10---10--10--------11----11----- 
G|--10--10---10--10--------10----10----- 
D|--10--10---10--10--------12----12----- 
A|--12--12---12--12--------------------- 
E|--10--10---10--10--------------------- 
 

        â??     â??         â??     â??   
 
     Am7                Gm7 
E|------12----12--------10----10-------- 
B|------13----13--------11----11-------- 
G|------12----12--------10----10-------- 
D|------14----14--------12----12-------- 
A|--12---------------------------------- 
E|-------------------------------------- 


(Variação) 

    â??   â??    â??   â??         â??     â??  
 
     Dm7                Gm7 
E|--10--10---10--10--------10----10----- 
B|--10--10---10--10--------11----11----- 
G|--10--10---10--10--------10----10----- 
D|--10--10---10--10--------12----12----- 
A|--12--12---12--12--------------------- 
E|--10--10---10--10--------------------- 
 

        â??     â??         â??     
 
     Am7                Gm7 
E|------12----12--------10-------------- 
B|------13----13--------11-------------- 
G|------12----12--------10-------------- 
D|------14----14--------12-------------- 
A|-------------------------------------- 
E|-------------------------------------- 
 

Riff 1: 

 
E|-------------------------------------- 
B|-------------------------------------- 
G|-------------------------------------- 
D|-------------------------------------- 
A|---------8---------------------------- 
E|--8--10-----10------------------------ 
 

Dm7                        Gm7 
E a contramão parece uma lembrança 
Am7 
Que se perde muita coisa 
       Gm7           (Riff 1) 
Muita coisa é pra se perder 


(Refrão) 
Ritmo: â?? â?? â?? â?? â?? â?? â?? â??  


Riff 2: 

 
E|-------------------------------------- 
B|-------------------------------------- 
G|-------------------------------------- 
D|-------------------------------------- 
A|-----------2-------------------------- 
E|--5--4--2----------------------------- 
 


(Repete o solo da Introdução 1x) 


(Parte 2) 

      (Riff 1) 



(Refrão) 

Am5+                        Gm7 
Hoje eu me sinto bem mais forte 
                   Am7 
Minha dor já virou sorte 
                  Gm7 
Vou buscando proteção 
        (Riff 1)        
Pra dar de pau em moleque 

E                  F#m 
Eu não desvio do caminho 
                   G#m 
Mesmo se estiver sozinho 
                  (Riff 2) 
Guardo força pra amanhã 

(Riff Final) 

Riff Final: 

 
E|--10--13--10----------10----------10--- 
B|--------------13--10------13--10--10-- 
G|----------------------------------10-- 
D|----------------------------------10-- 
A|----------------------------------12-- 
E|-------------------------------------- 
		  

Full key step upFull key step up
Half key step upHalf key step up
Half key step downHalf key step down
Full key step downFull key step down
hide glossary

See also:

tabs Charlie Brown Jr. - Beco sem saída tabs Charlie Brown Jr. - Quinta-Feira (ver. 2) tabs Noce Kolle - La Mascara Del Zorro - tabs Charlie Brown Jr. - Bons Aliados tabs Charlie Brown Jr. - Longe de Você (ver. 2) tabs Charlie Brown Jr. - I Feel So Good Today (Solo)
e-chords

Other versions:

tabs Maglore - Invejosa
auto scroll beats size up size down change color hide chords drawings
tab show chords e-chords YouTube Clip e-chords hide all tabs e-chords go to top tab

share