Maeckes

Unperfekt

Maeckes

tabs Expert expert

by  BRUNBLAZKOWSKI

save to print version add songbook text version e-mail correct tuner
chordsukulelecavacokeyboardtabbassdrumsharmonicaflute Guitar Pro
close

there isn't a video lesson for this song

chords

Unperfekt

	  		

Verse: 

   G                                 D                                Am                               Em 
e|-----3---3---3---3---3---3---3---3---2---2---2---2---2---2---2---2-----------------------------------------------------------0---0-| 
B|---------------------------------------------------------------------1---1---1---1---1---1---1---1---0---0---0---0---0---0---------| 
G|-----------------------------------------------------------------------------------------------------------------------------------| x4 
D|-----------------------------------0---0---0---0---0---0---0---0-------------------------------------------------------------------| 
A|---2---2---2---2---2---2---2---2-----------------------------------0---0---0---0---0---0---0---0---2---2---2---2---2---2---2---2---| 
E|-----------------------------------------------------------------------------------------------------------------------------------| 


Bridge: (..ich zeig nicht gern Gefühle, nichtmal wenn ich...) 

        G - D - Am - Em 


CHORDS: 

  Hier bin ich mir nicht ganz sicher, ungefähr so   (Verbesserungen sind erwünscht) 

 Für G                                 Für D 
    
  e|---3-----3----3-----|               e|---2-----2-----2-----| 
  B|-------0----0---0---|               B|-------3-----3---3---| 
  G|-----0----0-------0-|               G|-----2-----2-------2-| 
  D|--------------------|               D|-0-------------------| 
  A|-2------------------|               A|---------------------| 
  E|--------------------|               E|---------------------| 

 Für Am                                 Für Em 
  
  e|---------------------|               e|---------------------| 
  B|---1-----1-----1-----|               B|---0-----0-----0-----| 
  G|-------2-----2---2---|               G|-------0-----0---0---| 
  D|-----2-----2-------2-|               D|-----2-----2-------2-| 
  A|-0-------------------|               A|-2-------------------| 
  E|---------------------|               E|---------------------| 




EXTRA: 
  
Wem der Verse zu monoton ist kann das auch folgendermaßen spielen, ich glaube so ist es im Original 
 in der 2. Strophe auch... 
Im letzten Achtel wird sozusagen immer die Saite drüber bzw. drunter (wie mans nimmt) gezupft (außer bei Em , das würd ich "normal" spielen) 

  G                                D                               Am                             Em 
e|---3---3---3---3---3---3---3-------2---2---2---2---2---2---2---------------------------------------------------------------0---0-| 
B|-------------------------------0-------------------------------3---1---1---1---1---1---1---1-------0---0---0---0---0---0---------| 
G|-----------------------------------------------------------------------------------------------2---------------------------------| x4 
D|---------------------------------0---0---0---0---0---0---0---0-------------------------------------------------------------------| 
A|-2---2---2---2---2---2---2---2-----------------------------------0---0---0---0---0---0---0---0---2---2---2---2---2---2---2---2---| 
E|---------------------------------------------------------------------------------------------------------------------------------| 
		  

Full key step upFull key step up
Half key step upHalf key step up
Half key step downHalf key step down
Full key step downFull key step down
auto scroll beats size up size down change color hide chords drawings
tab show chords e-chords YouTube Clip e-chords hide all tabs e-chords go to top tab

share