Maeckes

Nisma

Maeckes

tabs

by  JOV-CORREA

save to print version add songbook text version e-mail correct tuner
chordsukulelecavacokeyboardtabbassdrumsharmonicaflute Guitar Pro
close

there isn't a video lesson for this song

chords

Nisma

	  		1) 
e|-3---3---3---3---| 
B|---0---0---0---0-| 
G|-----------------| 
D|-2---2---2---2---| 
A|-----------------| 
E|-----------------| 

2) 
e|-------------------| 
B|---3---3---3---3---| 
G|-----2---2---2---2-| 
D|-------------------| 
A|---2---2---2---2---| 
E|-------------------|  
		  

auto scroll beats size up size down change color hide chords drawings
tab show chords e-chords YouTube Clip e-chords hide all tabs e-chords go to top tab

share