Machine Head

Pearls Before The Swine

Machine Head

tabs Expert expert

by  FERNSANTANA

save to print version add songbook text version e-mail correct tuner
chordsukulelecavacokeyboardtabbassdrumsharmonicaflute Guitar Pro
close

there isn't a video lesson for this song

chords

Pearls Before The Swine

	  		
Tuning:  B    F#   B   E   G#   C#  

Intro/Verse 1 
Both guitars 
|---------------|-------------------------------------------------| 
|---------------|-------------------------------------------------| 
|---------------|-7-----------------------------------------------| 
|---------------|-------------------------------------------------| 
|---------------|-5-----------------------------------------------| 
|-0-7-6-5-6-5-3-|-----------------------------------0-7-6-5-6-5-3-| 

|-------------------------------------------------| 
|-------------------------------------------------| 
|-6----------------------10-----------------------| 
|-------------------------------------------------| 
|-4-----------------------8-----------------------| 
|-----------------------------------0-7-6-5-6-5-3-| 

|-------------------------------------------------| 
|-------------------------------------------------| 
|-7-----------------------------------------------| 
|-------------------------------------------------| 
|-5-----------------------------------------------| 
|-----------------------------------0-7-6-5-6-5-3-| 

|-------------------------------------------------| 
|-------------------------------------------------| 
|-3-----------------------6-----------------------| 
|-------------------------------------------------| 
|-1-----------------------4-----------------------| 
|-----------------------------------0-7-6-5-6-5-3-| 

Guitar 1 
|-------------------------------------------------| 
|-------------------------------------------------| 
|-7-----------------------------------------------| 
|-------------------------------------------------| 
|-5-----------------------------------------------| 
|-----------------------------------0-7-6-5-6-5-3-| 
| 
|Guitar 2 
|-------------------------------------------------| 
|-------------------------------------------------| 
|-10----------------------------------------------| 
|-------------------------------------------------| 
|--8----------------------------------------------| 
|-----------------------------------0-7-6-5-6-5-3-| 

Guitar 1 
|-------------------------------------------------| 
|-------------------------------------------------| 
|-6----------------------10-----------------------| 
|-------------------------------------------------| 
|-4-----------------------8-----------------------| 
|-----------------------------------0-7-6-5-6-5-3-| 
| 
|Guitar 2 
|-------------------------------------------------| 
|-------------------------------------------------| 
|-9----------------------14-----------------------| 
|-------------------------------------------------| 
|-7----------------------12-----------------------| 
|-----------------------------------0-7-6-5-6-5-3-| 

Guitar 1 
|-------------------------------------------------| 
|-------------------------------------------------| 
|-7-----------------------------------------------| 
|-------------------------------------------------| 
|-5-----------------------------------------------| 
|-----------------------------------0-7-6-5-6-5-3-| 
| 
|Guitar 2 
|-------------------------------------------------| 
|-------------------------------------------------| 
|-10----------------------------------------------| 
|-------------------------------------------------| 
|--8----------------------------------------------| 
|-----------------------------------0-7-6-5-6-5-3-| 

Guitar 1 
|-------------------------------------------------| 
|-------------------------------------------------| 
|-3-----------------------6-----------------------| 
|-------------------------------------------------| 
|-1-----------------------4-----------------------| 
|-----------------------------------0-7-6-5-6-5-3-| 
| 
| 
|-------------------------------------------------| 
|-------------------------------------------------| 
|-7----------------------10-----------------------| 
|-------------------------------------------------| 
|-5-----------------------8-----------------------| 
|-----------------------------------0-7-6-5-6-5-3-| 

                                                                             


Verse 2 
Both guitars 
|-------------------------------------------------| 
|-------------------------------------------------| 
|-------------------------------------------------| 
|-------------------------------------------------| 
|-------5---5-------5---5-------5---5-------5---5-| 
|-0-2-3---0---0-2-3---0---0-2-3---0---0-2-3---0---| 

|-------------------------------------------------| 
|-------------------------------------------------| 
|-------------------------------------------------| 
|-------------------------------3---3-------2---2-| 
|-------4---4-------4---4-------------------------| 
|-0-2-3---0---0-2-3---0---0-2-3---0---0-2-3---0---| 

|-------------------------------------------------| 
|-------------------------------------------------| 
|-------------------------------------------------| 
|-------------------------------------------------| 
|-------5---5-------5---5-------5---5-------5---5-| 
|-0-2-3---0---0-2-3---0---0-2-3---0---0-2-3---0---| 

|-------------------------------------------------| 
|-------------------------------------------------| 
|-------------------------------------------------| 
|-------------------------------------------------| 
|-------1---1-------1---1-------4---4-------4---4-| 
|-0-2-3---0---0-2-3---0---0-2-3---0---0-2-3---0---| 

                                                                             


Verse 3 
Both guitars 
|-------------------------------------------------| 
|-------------------------------------------------| 
|-------------------------------------3p2-2-3p2-2-| 
|-------------------------------------------------| 
|-2-2---2---2-5-----------2-2---2---2-------------| 
|-2-2---2---2-5-----------2-2---2---2-------------| 

|-------------------------------------------------| 
|-------------------------------------------------| 
|------------10\9-9-9-9-9-9\8-8-8-8-8-5-5-5-8-8-8-| 
|-------------------------------------------------| 
|-2-2---2---2-8\7-7-7-7-7-7\6-6-6-6-6-3-3-3-6-6-6-| 
|-2-2---2---2-------------------------------------| 

|-------------------------------------------------| 
|-------------------------------------------------| 
|-------------------------------------3p2-2-3p2-2-| 
|-------------------------------------------------| 
|-2-2---2---2-5-----------2-2---2---2-------------| 
|-2-2---2---2-5-----------2-2---2---2-------------| 

|-------------------------------------------------| 
|-------------------------------------------------| 
|------------10\9-9-9-9-9-9\8-8-8-8-8---------5-8-| 
|-----------------------------------------4-7-----| 
|-2-2---2---2-8\7-7-7-7-7-7\6-6-6-6-6-3-6---------| 
|-2-2---2---2-------------------------------------| 

                                                                             


Verse 4 
Both guitars 
|-------------------------------------------------| 
|-------------------------------------------------| 
|-------------------------------------------------| 
|-------------------3-----------------------5-----| 
|-0-0---0---0-4-5-7---7-5-0-0---0---0-5-7-8---8-7-| 
|-0-0---0---0-------------0-0---0---0-------------| 

|---------------------------------------------------------------| 
|---------------------------------------------------------------| 
|---------------------------------------------------------------| 
|-------------------3------------7------5-7-8-7-8-7-5-7-5-------| 
|-0-0---0---0-4-5-7---7-5-7-8-10---10-8-------------------8-7-4-| 
|-0-0---0---0---------------------------------------------------| 

Guitar 1 
|-------------------------------------------------| 
|-------------------------------------------------| 
|-------------------------------------------------| 
|-------------------3-----------------------5-----| 
|-0-0---0---0-4-5-7---7-5-0-0---0---0-5-7-8---8-7-| 
|-0-0---0---0-------------0-0---0---0-------------| 
| 
|Guitar 2 
|-------------------------------------------------------| 
|-------------------------------------------------------| 
|-------------------------------------------------------| 
|--------------------7--------------------------8-------| 
|-0-0---0---0-7-8-10---10-8-0-0---0---0-8-10-12---12-10-| 
|-0-0---0---0---------------0-0---0---0-----------------| 

Guitar 1 
|---------------------------------------------------------------| 
|---------------------------------------------------------------| 
|---------------------------------------------------------------| 
|-------------------3------------7------5-7-8-7-8-7-5-7-5-------| 
|-0-0---0---0-4-5-7---7-5-7-8-10---10-8-------------------8-7-4-| 
|-0-0---0---0---------------------------------------------------| 
| 
|Guitar 2 
|-----------------------------------------------------------------------------| 
|-----------------------------------------------------------------------------| 
|-----------------------------------------------------------------------------| 
|--------------------7---------------10-------8-10-12-10-12-10-8-10-8---------| 
|-0-0---0---0-7-8-10---10-8-10-12-13----13-12-------------------------12-10-7-| 
|-0-0---0---0-----------------------------------------------------------------| 

                                                                             


Chorus 1 
Both guitars 
|---------------------------------------------------| 
|---------------------------------------------------| 
|---------------------------------------------------| 
|---------------------------------------------------| 
|-------8---8-------7---7-------10---10-------8---8-| 
|-8-8-8-8-8-8-8-8-8-8-8-8-8-8-8--8-8-8--8-8-8-8-8-8-| 

|-------------------------------------------------| 
|-------------------------------------------------| 
|-------------------------------------------------| 
|-------------------------------------------------| 
|-------7---7-------5---5-------8---8-------7---7-| 
|-7-7-7-7-7-7-7-7-7-7-7-7-7-7-7-7-7-7-7-7-7-7-7-7-| 

|---------------------------------------------------| 
|---------------------------------------------------| 
|---------------------------------------------------| 
|---------------------------------------------------| 
|-------8---8-------7---7-------10---10-------8---8-| 
|-8-8-8-8-8-8-8-8-8-8-8-8-8-8-8--8-8-8--8-8-8-8-8-8-| 

|-------------------------|-------------------------------------------------| 
|-------------------------|-------------------------------------------------| 
|-------------------------|-------------------------------------------------| 
|-------------------------|-5NH---------5NH---------5NH---------------------| 
|-------7---7-------5---5-|-------------------------------------------------| 
|-7-7-7-7-7-7-7-7-7-7-7-7-|---0-2-3-2-0---0-2-3-2-0---0-2-3-2-0-7-6-5-6-5-3-| 

                                                                             


Repeat Verse 1 


Repeat Verse 2 
(But this time guitar 2 plays a harmony) 
|-------------------------------------------------| 
|-------------------------------------------------| 
|-------------------------------------------------| 
|-------3---3-------3---3-------3---3-------3---3-| 
|-------------------------------------------------| 
|-0-2-3---0---0-2-3---0---0-2-3---0---0-2-3---0---| 

|-------------------------------------------------| 
|-------------------------------------------------| 
|-------------------------------2---2-------------| 
|-------2---2-------2---2-------------------5---5-| 
|-------------------------------------------------| 
|-0-2-3---0---0-2-3---0---0-2-3---0---0-2-3---0---| 

|-------------------------------------------------| 
|-------------------------------------------------| 
|-------------------------------------------------| 
|-------3---3-------3---3-------3---3-------3---3-| 
|-------------------------------------------------| 
|-0-2-3---0---0-2-3---0---0-2-3---0---0-2-3---0---| 

|-------------------------------------------------| 
|-------------------------------------------------| 
|-------------------------------------------------| 
|-------------------------------3---3-------2---2-| 
|-------5---5-------5---5-------------------------| 
|-0-2-3---0---0-2-3---0---0-2-3---0---0-2-3---0---| 

                                                                             


Repeat Verse 3 
(But this time there is a small harmony right at the end) 
|-------------------------------------|---------------| 
|-------------------------------------|---------------| 
|------------10\9-9-9-9-9-9\8-8-8-8-8-|----------8-11-| 
|-------------------------------------|-----7-10------| 
|-2-2---2---2-8\7-7-7-7-7-7\6-6-6-6-6-|-6-9-----------| 
|-2-2---2---2-------------------------|---------------| 

                                                                             


Repeat Chorus 1 

                                                                             


Soothing Verse 
(This verse is clean and I think they use) 
( A  chorus flange to get the effect) 
Guitar 1 
|-10-----------------------13-----12-----10------------| 
|-10--------------------------------------------13-----| 
|-10---------------------------------------------------| 
|-12---------------------------------------------------| 
|------------------------------------------------------| 
|------------------------------------------------------| 

|-6-------------------8---------------------------------| 
|-6-------------------------10--------------------------| 
|-7-------------------------10-------------------12-----| 
|-8-------------------------12--------------------------| 
|---------------------------12--------------------------| 
|-------------------------------------------------------| 

|---------------------------9-----------------------| 
|-10-----------------------10-----------------------| 
|-10------------------------9-----------------------| 
|-12-----------------------11-----------------------| 
|-12-----------------------12-----------------------| 
|---------------------------------------------------| 

Guitar 1 
|---------------------------------------------8-----| 
|--------------------------------8-----10-----------| 
|-7-----------9-----------10------------------------| 
|---------------------------------------------------| 
|---------------------------------------------------| 
|---------------------------------------------------| 
| 
|Guitar 2 
|---------------------------------------8-----------| 
|-------------8------------10-----------------------| 
|-10------------------------------------------------| 
|---------------------------------------------------| 
|---------------------------------------------------| 
|---------------------------------------------------| 

Guitar 1 repeats what it played before 
Whilst guitar 2 plays the below 

Guitar 2 
|-10\-----------------------------------12-----13-----| 
|-----------------------------------------------------| 
|-----------------------------------------------------| 
|-----------------------------------------------------| 
|-----------------------------------------------------| 
|-----------------------------------------------------| 

|-15-----------------17-----13----------12-----10-----| 
|-----------------------------------------------------| 
|-----------------------------------------------------| 
|-----------------------------------------------------| 
|-----------------------------------------------------| 
|-----------------------------------------------------| 

|-13-----------15-----------17----------20\-----------| 
|-15-----------17-----------18----------22\-----------| 
|-----------------------------------------------------| 
|-----------------------------------------------------| 
|-----------------------------------------------------| 
|-----------------------------------------------------| 

Both guitars (Distorted) 
|-------------------------------------------------| 
|-------------------------------------------------| 
|-------------------------------------------------| 
|-------------------------------------------------| 
|---8---8---8---7---7---7---5---5---5---3---3---3-| 
|-0-----------0-----------0-----------0-----------| 

                                                                             


Broken Vows verse 
(Rusted hopeless dreams) 
Guitar 1 
|-------------------------------------------------------------| 
|-------------------------------------------------------------| 
|-10-10-10-10-10-10-10-10-10-14-14-14-12-12-12-10-10-10-9-9-9-| 
|-------------------------------------------------------------| 
|--8--8--8--8--8--8--8--8--8-12-12-12-10-10-10--8--8--8-7-7-7-| 
|-------------------------------------------------------------| 
| 
|Guitar 2 
|-10-10-10-10-10-10-10-10-10-10-10-10-13-13-13-12-12-12-10-10-10----------| 
|----------------------------------------------------------------13-13-13-| 
|--7--7--7--7--7--7--7--7--7--7--7--7-10-10-10--9--9--9--7--7--7----------| 
|----------------------------------------------------------------10-10-10-| 
|-------------------------------------------------------------------------| 
|-------------------------------------------------------------------------| 

Guitar 1 
|-------------------------------------------------| 
|-------------------------------------------------| 
|-7-7-7-7-7-7-7-7-7-9-9-9-5-5-5-5-5-5-3-3-3-2-2-2-| 
|-------------------------------------------------| 
|-5-5-5-5-5-5-5-5-5-7-7-7-3-3-3-3-3-3-1-1-1-0-0-0-| 
|-------------------------------------------------| 
| 
|Guitar 2 
|-------------------------------------------------------------------| 
|-11-11-11-11-11-11-11-11-11-13-13-13-10-10-10-10-10-10-8-8-8-6-6-6-| 
|-------------------------------------------------------------------| 
|--8--8--8--8--8--8--8--8--8-10-10-10--7--7--7--7--7--7-5-5-5-3-3-3-| 
|-------------------------------------------------------------------| 
|-------------------------------------------------------------------| 

Guitar 1 
|-------------------------------------------------------| 
|-------------------------------------------------------| 
|-10-10-10-10-10-10-7-7-7-7-7-7-9-9-9-9-9-9-5-5-5-5-5-5-| 
|-------------------------------------------------------| 
|--8--8--8--8--8--8-5-5-5-5-5-5-7-7-7-7-7-7-3-3-3-3-3-3-| 
|-------------------------------------------------------| 
| 
|Guitar 2 
|-------------------------------------------------------| 
|-10-10-10-10-10-10-6-6-6-6-6-6-8-8-8-8-8-8-5-5-5-5-5-5-| 
|-------------------------------------------------------| 
|--7--7--7--7--7--7-3-3-3-3-3-3-5-5-5-5-5-5-2-2-2-2-2-2-| 
|-------------------------------------------------------| 
|-------------------------------------------------------| 

Guitar 1 
|-------------------------------------------------| 
|-------------------------------------------------| 
|-------------------------------------------------| 
|-------------------------------------------------| 
|---8---8---8---7---7---7---5---5---5---3---3---3-| 
|-0-----------0-----------0-----------0-----------| 
| 
|Guitar 2 
|-------------------------------------------------------| 
|-------------------------------------------------------| 
|-------------------------------------------------------| 
|-------------------------------------------------------| 
|---12---12---12---10---10---10---8---8---8---7---7---7-| 
|-0--------------0--------------0-----------0-----------| 

(Rusted hands in prayer) 
Guitar 1 
|-------------------------------------------------------------| 
|-------------------------------------------------------------| 
|-10-10-10-10-10-10-10-10-10-14-14-14-12-12-12-10-10-10-9-9-9-| 
|-------------------------------------------------------------| 
|--8--8--8--8--8--8--8--8--8-12-12-12-10-10-10--8--8--8-7-7-7-| 
|-------------------------------------------------------------| 
| 
|Guitar 2 
|-10-10-10-10-10-10-10-10-10-10-10-10-13-13-13-12-12-12-10-10-10----------| 
|----------------------------------------------------------------13-13-13-| 
|--7--7--7--7--7--7--7--7--7--7--7--7-10-10-10--9--9--9--7--7--7----------| 
|----------------------------------------------------------------10-10-10-| 
|-------------------------------------------------------------------------| 
|-------------------------------------------------------------------------| 

Guitar 1 
|-------------------------------------------------| 
|-------------------------------------------------| 
|-7-7-7-7-7-7-7-7-7-9-9-9-5-5-5-5-5-5-3-3-3-2-2-2-| 
|-------------------------------------------------| 
|-5-5-5-5-5-5-5-5-5-7-7-7-3-3-3-3-3-3-1-1-1-0-0-0-| 
|-------------------------------------------------| 
| 
|Guitar 2 
|-------------------------------------------------------------------| 
|-11-11-11-11-11-11-11-11-11-13-13-13-10-10-10-10-10-10-8-8-8-6-6-6-| 
|-------------------------------------------------------------------| 
|--8--8--8--8--8--8--8--8--8-10-10-10--7--7--7--7--7--7-5-5-5-3-3-3-| 
|-------------------------------------------------------------------| 
|-------------------------------------------------------------------| 

Guitar 1 
|-------------------------------------------------------------| 
|-------------------------------------------------------------| 
|-10-10-10-10-10-10-7-7-7-7-7-7-9-9-9-9-9-9-12-12-12-12-12-12-| 
|-------------------------------------------------------------| 
|--8--8--8--8--8--8-5-5-5-5-5-5-7-7-7-7-7-7-10-10-10-10-10-10-| 
|-------------------------------------------------------------| 
| 
|Guitar 2 
|-------------------------------------------------------------| 
|-10-10-10-10-10-10-6-6-6-6-6-6-8-8-8-8-8-8-11-11-11-11-11-11-| 
|-------------------------------------------------------------| 
|--7--7--7--7--7--7-3-3-3-3-3-3-5-5-5-5-5-5--8--8--8--8--8--8-| 
|-------------------------------------------------------------| 
|-------------------------------------------------------------| 

Guitar 1 
|-------------------------------------------------| 
|-------------------------------------------------| 
|-------------------------------------------------| 
|-------------------------------------------------| 
|---8---8---8---7---7---7---5---5---5---3---3---3-| 
|-0-----------0-----------0-----------0-----------| 
| 
|Guitar 2 
|-------------------------------------------------------| 
|-------------------------------------------------------| 
|-------------------------------------------------------| 
|-------------------------------------------------------| 
|---12---12---12---10---10---10---8---8---8---7---7---7-| 
|-0--------------0--------------0-----------0-----------| 

(In these killing fields) 
Guitar 1 
|-------------------------------------------------------------------------| 
|-------------------------------------------------------------------------| 
|-10-10-10-10-10-10-10-10-10-10-10-10-12-12-12-12-12-12-12-12-12-12-12-12-| 
|-------------------------------------------------------------------------| 
|--8--8--8--8--8--8--8--8--8--8--8--8-10-10-10-10-10-10-10-10-10-10-10-10-| 
|-------------------------------------------------------------------------| 
| 
|Guitar 2 
|-13-----------------------12-----13-----15-----12-----| 
|------------------------------------------------------| 
|-10------------------------9-----10-----12------9-----| 
|------------------------------------------------------| 
|------------------------------------------------------| 
|------------------------------------------------------| 

Guitar 1 
|-------------------------------------------------------------------------| 
|-------------------------------------------------------------------------| 
|-14-14-14-14-14-14-14-14-14-15-15-15-12-12-12-12-12-12-14-14-14-14-14-14-| 
|-------------------------------------------------------------------------| 
|-12-12-12-12-12-12-12-12-12-13-13-13-10-10-10-10-10-10-12-12-12-12-12-12-| 
|-------------------------------------------------------------------------| 
| 
|Guitar 2 
|-13-----------10-----------12-----------8-----------| 
|----------------------------------------------------| 
|-10------------7------------9-----------5-----------| 
|----------------------------------------------------| 
|----------------------------------------------------| 
|----------------------------------------------------| 

Guitar 1 
|-------------------------------------------------------| 
|-------------------------------------------------------| 
|-10-10-10-10-10-10-7-7-7-7-7-7-9-9-9-9-9-9-5-5-5-5-5-5-| 
|-------------------------------------------------------| 
|--8--8--8--8--8--8-5-5-5-5-5-5-7-7-7-7-7-7-3-3-3-3-3-3-| 
|-------------------------------------------------------| 
| 
|Guitar 2 
|-6-----------13-----------12-----------8-----------| 
|---------------------------------------------------| 
|-3-----------10------------9-----------5-----------| 
|---------------------------------------------------| 
|---------------------------------------------------| 
|---------------------------------------------------| 

Guitar 1 
|-------------------------------------------------| 
|-------------------------------------------------| 
|-------------------------------------------------| 
|-------------------------------------------------| 
|---8---8---8---7---7---7---5---5---5---3---3---3-| 
|-0-----------0-----------0-----------0-----------| 
| 
|Guitar 2 
|----------------------------------------------------------| 
|----------------------------------------------------------| 
|----------------------------------------------------------| 
|----------------------------------------------------------| 
|---8---8---8---10---10---10---12---12---12---15---15---15-| 
|-0-----------0--------------0--------------0--------------| 

Guitar 1 
|-------------------------------------------------| 
|-------------------------------------------------| 
|-------------------------------------------------| 
|-------------------------------------------------| 
|---8---8---8---7---7---7---5---5---5---3---3---3-| 
|-0-----------0-----------0-----------0-----------| 
| 
|Guitar 2 
|-------------------------------------------------------------| 
|-------------------------------------------------------------| 
|-------------------------------------------------------------| 
|-------------------------------------------------------------| 
|---12---12---12---15---15---15---17---17---17---19---19---19-| 
|-0--------------0--------------0--------------0--------------| 

                                                                             


Break 
Guitar 1 
|---------| 
|---------| 
|---------| 
|-0-------| 
|-0-------| 
|-0-------| 

Guitar 2 
|--------------------| 
|-10-----------------| 
|------10------------| 
|-----------12-------| 
|--------------------| 
|--------------------| 

                                                                             


Bridge 
Both guitars 
|------------------------------------------------------------------------| 
|------------------------------------------------------------------------| 
|------------------------------------------------------------------------| 
|------------------------------------------------------------------------| 
|-----------------------13p12---------12p10---------10p8---------7-/-8---| 
|-0-0-0-0-12p10-0-0-0-0-------0-0-0-0-------0-0-0-0------0-0-0-0---------| 

|----------------------------------------------------------------------| 
|----------------------------------------------------------------------| 
|----------------------------------------------------------------------| 
|----------------------------------------------------------------------| 
|-----------------------12p10---------10p8---------7-/-8-------7-\-5---| 
|-0-0-0-0-12p10-0-0-0-0-------0-0-0-0------0-0-0-0---------8-----------| 

|------------------------------------------------------------------------| 
|------------------------------------------------------------------------| 
|------------------------------------------------------------------------| 
|------------------------------------------------------------------------| 
|-----------------------13p12---------12p10---------10p8---------7-/-8---| 
|-0-0-0-0-12p10-0-0-0-0-------0-0-0-0-------0-0-0-0------0-0-0-0---------| 

|----------------------------------------------------------------------| 
|----------------------------------------------------------------------| 
|----------------------------------------------------------------------| 
|----------------------------------------------------------------------| 
|-----------------------12p10---------7--------------------------------| 
|-0-0-0-0-12p10-0-0-0-0-------0-0-0-0-8--------------------------------| 

                                                                             


Chorus 2 
Both guitars 
|------------------------------------------------------------------| 
|------------------------------------------------------------------| 
|------------------------------------------------------------------| 
|------------------------------------------------------------------| 
|-8---------------7---------------10---------------8---------------| 
|-8-8-8-8-8-8-8-8-8-8-8-8-8-8-8-8--8-8-8-8-8-8-8-8-8-8-8-8-8-8-8-8-| 

|-----------------------------------------------------------------| 
|-----------------------------------------------------------------| 
|-----------------------------------------------------------------| 
|-----------------------------------------------------------------| 
|-7---------------5---------------8---------------7---------------| 
|-7-7-7-7-7-7-7-7-7-7-7-7-7-7-7-7-7-7-7-7-7-7-7-7-7-7-7-7-7-7-7-7-| 

|------------------------------------------------------------------| 
|------------------------------------------------------------------| 
|------------------------------------------------------------------| 
|------------------------------------------------------------------| 
|-8---------------7---------------10---------------8---------------| 
|-8-8-8-8-8-8-8-8-8-8-8-8-8-8-8-8--8-8-8-8-8-8-8-8-8-8-8-8-8-8-8-8-| 

|---------------------------------| 
|---------------------------------| 
|---------------------------------| 
|---------------------------------| 
|-7---------------5---------------| 
|-7-7-7-7-7-7-7-7-7-7-7-7-7-7-7-7-| 

Guitar 1 
|-----------------------------------------------------------------| 
|-----------------------------------------------------------------| 
|-----------------------------------------------------------------| 
|-----------------------------------------------------------------| 
|-----------------------------------------------------------------| 
|-0-0-0-0-3-------0-0-0-0-5-------0-0-0-0-6-------0-0-0-0-7-------| 
| 
|Guitar 2 (Wah-wah pedal) 
|-----------------------------------------------------------------| 
|-----------------------------------------------------------------| 
|-----------------------------------------------------------------| 
|---------3---------------5---------------6---------------7p5-----| 
|-------------------------------------------------------------8---| 
|-----------------------------------------------------------------| 

                                                                             


Repeat Bridge 


Repeat Chorus 

                                                                             


Solo 
Guitar 1 (Rhythm) 
|-----------------------------------------------------------------| 
|-----------------------------------------------------------------| 
|-----------------------------------------------------------------| 
|-----------------------------------------------------------------| 
|-5---------------3---------------8---------------6---------------| 
|-----0-0-0-0-0-0-----0-0-0-0-0-0-----0-0-0-0-0-0-----0-0-0-0-0-0-| 

|-----------------------------------------------------------------| 
|-----------------------------------------------------------------| 
|-----------------------------------------------------------------| 
|-----------------------------------------------------------------| 
|-5---------------3---------------8---------------6---------------| 
|-----0-0-0-0-0-0-----0-0-0-0-0-0-----0-0-0-0-0-0-----0-0-0-0-0-0-| 

|-----------------------------------------------------------------| 
|-----------------------------------------------------------------| 
|-----------------------------------------------------------------| 
|---------------------------------3---------------2---------------| 
|-5---1-1-1-1-1-1-3---1-1-1-1-1-1-----1-1-1-1-1-1-----1-1-1-1-1-1-| 
|-----------------------------------------------------------------| 

|-----------------------------------------------------------------| 
|-----------------------------------------------------------------| 
|-----------------------------------------------------------------| 
|---------------------------------5---------------3---------------| 
|-5---3-3-3-3-3-3-3---3-3-3-3-3-3-----3-3-3-3-3-3-----3-3-3-3-3-3-| 
|-----------------------------------------------------------------| 

Guitar 2 (Lead) 
(With Wah-Wah pedal) 
|-----------------------------------------------------------------| 
|-----------------------------------------------------------------| 
|-5PH-DB----------------------------------------------------------| 
|-----------------------------------------------------------------| 
|-----------------------------------------------------------------| 
|-----------------------------------------------------------------| 

|-10WB------------12WB------------13WB------------15BU(17)--------| 
|-----------------------------------------------------------------| 
|-----------------------------------------------------------------| 
|-----------------------------------------------------------------| 
|-----------------------------------------------------------------| 
|-----------------------------------------------------------------| 

|-----------------------------------------------------------------| 
|------------------8----------------------------------------------| 
|-7-----9-----10---------10-----9---10-----9-----7h9p7------------| 
|--------------------------------------------------------10-------| 
|-----------------------------------------------------------------| 
|-----------------------------------------------------------------| 

|-------------------------------------------------------------------------------------20-22-| 
|----------------------------------------------------------------------------18-20-22-------| 
|-7h9p7h9-9h10p9h10-10h12p10h12-12h14p12h14-14h15p14h15-17h19p17h17-17-19-21----------------| 
|-------------------------------------------------------------------------------------------| 
|-------------------------------------------------------------------------------------------| 
|-------------------------------------------------------------------------------------------| 

|-24-----BU-----(25)-(24)-22----------------| 
|--------------------------------------22---| 
|-------------------------------------------| 
|-------------------------------------------| 
|-------------------------------------------| 
|-------------------------------------------| 

|-24-----BU-----(25)-(24)-20BU(22)(20)-18-17-------| 
|--------------------------------------------18----| 
|-----------------------------------------------19-| 
|--------------------------------------------------| 
|--------------------------------------------------| 
|--------------------------------------------------| 

|-18BU(20)(18)p17-18-------20BU(22)(20)p18-20------| 
|--------------------------------------------------| 
|--------------------------------------------------| 
|--------------------------------------------------| 
|--------------------------------------------------| 
|--------------------------------------------------| 

|-------10-13p10--------------------------13-12-10-12-13-------| 
|-----10--------10---15-13-11-13-15----------------------------| 
|---10------------10-------------------------------------------| 
|-12-----------------------------------------------------------| 
|--------------------------------------------------------------| 
|--------------------------------------------------------------| 

|-15-13-12----------12-13-15p13p12/13-17p15p13h15-17BU(18)-----| 
|----------15-13-15--------------------------------------------| 
|--------------------------------------------------------------| 
|--------------------------------------------------------------| 
|--------------------------------------------------------------| 
|--------------------------------------------------------------| 

                                                                             


Final Verse 
Both guitars 
|--------------------------------------------| 
|--------------------------------------------| 
|--------------------------------------------| 
|--------------------------------------------| 
|---------8---------------7---------------10-| 
|-8-8-8-8-8-------8-8-8-8-8-------8-8-8-8--8-| 

|-------------------------------------------| 
|-------------------------------------------| 
|-------------------------------------------| 
|-------------------------------------------| 
|---------7---------------5---------------8-| 
|-7-7-7-7-7-------7-7-7-7-7-------7-7-7-7-7-| 

|--------------------------------------------| 
|--------------------------------------------| 
|--------------------------------------------| 
|--------------------------------------------| 
|---------8---------------7---------------10-| 
|-8-8-8-8-8-------8-8-8-8-8-------8-8-8-8--8-| 

|-------------------------------------------| 
|-------------------------------------------| 
|---------------------------------7h10p7h10-| 
|-------------------------6h9p6h9-----------| 
|---------7-------5h8p5h8-------------------| 
|-7-7-7-7-7---------------------------------| 

                                                                             


Breakdown 
Both guitars 
|---------------------------------------------------| 
|---------------------------------------------------| 
|---------------------------------7h10p7h10---------| 
|-------------------------6h9p6h9-----------6h9p6h9-| 
|-0-0-0-0-0-0-0-0-5h8p5h8---------------------------| 
|-0-0-0-0-0-0-0-0-----------------------------------| 

|-----------------------------------------------------------| 
|-----------------------------------------------------------| 
|-------------------------------------10h13p10h13-----------| 
|---------------------------9h12p9h12-------------9h12p9h12-| 
|-0--0--0-0--0--0-8h11p8h11---------------------------------| 
|-0--0--0-0--0--0-------------------------------------------| 

|---------------------------------------------------| 
|---------------------------------------------------| 
|---------------------------------7h10p7h10---------| 
|-------------------------6h9p6h9-----------6h9p6h9-| 
|-0-0-0---0-0-0---5h8p5h8---------------------------| 
|-0-0-0---0-0-0-------------------------------------| 

|---------------------------------| 
|---------------------------------| 
|---------------------------------| 
|---------------------------------| 
|-(12)-----Harmonic-slide-----(5)-| 
|-0-0-0-0-0-0-0-0-0-0-0-0-0-0-0-0-| 

Guitar 1 
|-----------------------------------| 
|-----------------------------------| 
|-7h10p7h10-------------------------| 
|-----------6h9p6h9---------6h9p6h9-| 
|-------------------5h8p5h8---------| 
|-----------------------------------| 
| 
|Guitar 2 
|-------------------------------------------| 
|-------------------------------------------| 
|---------------------10h13p10h13-----------| 
|-----------9h12p9h12-------------9h12p9h12-| 
|-8h11p8h11---------------------------------| 
|-------------------------------------------| 

Guitar 1 
|-------------------------------------------| 
|-------------------------------------------| 
|-10h13p10h13-------------------------------| 
|-------------9h12p9h12-----------9h12p9h12-| 
|-----------------------8h11p8h11-----------| 
|-------------------------------------------| 
| 
|Guitar 2 
|-------------------------------------------------| 
|-------------------------------------------------| 
|-------------------------13h16p13h16-------------| 
|-------------12h15p12h15-------------12h15p12h15-| 
|-11h14p11h14-------------------------------------| 
|-------------------------------------------------| 

|---------------------------------------------------| 
|---------------------------------------------------| 
|---------------------------------7h10p7h10---------| 
|-------------------------6h9p6h9-----------6h9p6h9-| 
|-0-0-0-0-0-0-0-0-5h8p5h8---------------------------| 
|-0-0-0-0-0-0-0-0-----------------------------------| 

Guitar 1 
|---------------------------------------------| 
|---------------------------------------------| 
|-----------------13---10---------------------| 
|---------------------------12---9------------| 
|-0--0--0-0--0--0--------------------11---8---| 
|-0--0--0-0--0--0-----------------------------| 
| 
|Guitar 2 
|-------------------------------------------| 
|-------------------------------------------| 
|----------------------------------7---10---| 
|--------------------------6---9------------| 
|-0--0--0-0--0--0-5---8---------------------| 
|-0--0--0-0--0--0---------------------------| 

|---------------------------------------------------| 
|---------------------------------------------------| 
|---------------------------------7h10p7h10---------| 
|-------------------------6h9p6h9-----------6h9p6h9-| 
|-0-0-0---0-0-0---5h8p5h8---------------------------| 
|-0-0-0---0-0-0-------------------------------------| 

|---------------------------------| 
|---------------------------------| 
|---------------------------------| 
|---------------------------------| 
|-(12)-----Harmonic-slide-----(5)-| 
|-0-0-0-0-0-0-0-0-0-0-0-0-0-0-0-0-| 

Guitar 1 
|-----------------------------------| 
|-----------------------------------| 
|-7h10p7h10-------------------------| 
|-----------6h9p6h9---------6h9p6h9-| 
|-------------------5h8p5h8---------| 
|-----------------------------------| 
| 
|Guitar 2 
|-------------------------------------------| 
|-------------------------------------------| 
|---------------------10h13p10h13-----------| 
|-----------9h12p9h12-------------9h12p9h12-| 
|-8h11p8h11---------------------------------| 
|-------------------------------------------| 

Guitar 1 
|-------------------------------------------| 
|-------------------------------------------| 
|-10h13p10h13-------------------------------| 
|-------------9h12p9h12-----------9h12p9h12-| 
|-----------------------8h11p8h11-----------| 
|-------------------------------------------| 
| 
|Guitar 2 
|-------------------------------------------------| 
|-------------------------------------------------| 
|-------------------------13h16p13h16-------------| 
|-------------12h15p12h15-------------12h15p12h15-| 
|-11h14p11h14-------------------------------------| 
|-------------------------------------------------|  
		  

See also:

tabs Guns N' Roses - Sweet Child o' mine tabs The Offspring - Come Out and Play tabs Guns N' Roses - Live and Let Die tabs Guns N' Roses - November Rain tabs Foo Fighters - Times Like These tabs Simon & Garfunkel - Sounds of silence
e-chords

Other versions:

tabs Machine Head - Pearls Before The Swine
auto scroll beats size up size down change color hide chords drawings
tab show chords e-chords YouTube Clip e-chords hide all tabs e-chords go to top tab

share