Mac Demarco

Only You

Mac Demarco

tabs

by  IRONPOWER4EVER

save to print version add songbook text version e-mail correct tuner
chordsukulelecavacokeyboardtabbassdrumsharmonicaflute Guitar Pro
close

there isn't a video lesson for this song

chords

Only You

	  		

Verse: 
Mac very, very lightly keeps hitting the root note of the first chord (A6 chord) 
as it rings out, but I don't want to overcomplicate the tab. It's easy enough to 
work out and just provides more of a solid rhythm: 
"Only you, only you, only you could treat me like you do, 
And only..." 
e|-2--------------4.-4.--2--------------4.-4.--2--------4--4--4---4--2--------------4.-4.--| 
B|-2--------------4.-4.--2--------------4.-4.--2--------5--5--4---4--2--------------4.-4.--| 
G|-2--------------4.-4.--2--------------4.-4.--2--------6--6--4---4--2--------------4.-4.--| 
D|-2--------------4.-4.--2--------------4.-4.--2--------6--6--4---4--2--------------4.-4.--| 
A|-0--------------2.-2.--0--------------2.-2.--0--------4--4--2---4--0--------------2.-2.--| 
E|-----------------------------------------------------------------------------------------| 

"...she, only she, only she shows me where I'd be, 
So..." 
e|-2--------------4.-4.--2--------------4.-4.--2--------4--4--4---4--2--------| 
B|-2--------------4.-4.--2--------------4.-4.--2--------5--5--4---4--2--------| 
G|-2--------------4.-4.--2--------------4.-4.--2--------6--6--4---4--2--------| 
D|-2--------------4.-4.--2--------------4.-4.--2--------6--6--4---4--2--------| 
A|-0--------------2.-2.--0--------------2.-2.--0--------4--4--2---4--0--------| 
E|----------------------------------------------------------------------------| 


Pre-Chorus 
"...sorry, boo, we're though" 
e|-4--4--4---4--2-----------------------| 
B|-5--5--4---4--2-----------------------| 
G|-6--6--4---4--2-----------------------| 
D|-6--6--4---4--2--2--2--2--2--2--2--2--| 
A|-4--4--2---4--0--0--0--0--0--0--0--0--| 
E|--------------------------------------| 


Chorus: 
"I'm done cryin' over her, 
I'm done cryin' over her, 
My hands hurt I think I'll go lay down" 
e|-2-2-2-2-4-4-4-4-4--4--4--4--2--2--2--2--2--2----------| 
B|-2-2-2-2-4-4-4-4-5--5--5--5--2--2--2--2--2--2----------| 
G|-2-2-2-2-4-4-4-4-6--6--6--6--2--2--2--2--2--2----------| x3 
D|-2-2-2-2-4-4-4-4-6--6--6--6--2--2--2--2--2--2----------| 
A|-0-0-0-0-2-2-2-2-4--4--4--4--0--0--0--0--0--0--------4-| 
E|-----------------------------------------------0-2-4---| 

Chorus end: 
"'Cause I'm done cryin' over her, 
Here I..." 
e|-2-2-2-2-4-4-4-4-4--4--4--4--2--2--2--2--2--2---4.-4.--| 
B|-2-2-2-2-4-4-4-4-5--5--5--5--2--2--2--2--2--2---4.-4.--| 
G|-2-2-2-2-4-4-4-4-6--6--6--6--2--2--2--2--2--2---4.-4.--| 
D|-2-2-2-2-4-4-4-4-6--6--6--6--2--2--2--2--2--2---4.-4.--| 
A|-0-0-0-0-2-2-2-2-4--4--4--4--0--0--0--0--0--0---2.-2.--| 
E|-------------------------------------------------------| 


Verse: 
"...am, brand new day, now there's you, let me show you blue, 
And only..." 
e|-2--------------4.-4.--2--------------4.-4.--2--------4--4--4---4--2--------------4.-4.--| 
B|-2--------------4.-4.--2--------------4.-4.--2--------5--5--4---4--2--------------4.-4.--| 
G|-2--------------4.-4.--2--------------4.-4.--2--------6--6--4---4--2--------------4.-4.--| 
D|-2--------------4.-4.--2--------------4.-4.--2--------6--6--4---4--2--------------4.-4.--| 
A|-0--------------2.-2.--0--------------2.-2.--0--------4--4--2---4--0--------------2.-2.--| 
E|-----------------------------------------------------------------------------------------| 

"...she, only she, only she shows me where I'd be, 
So..." 
e|-2--------------4.-4.--2--------------4.-4.--2--------4--4--4---4--2--------| 
B|-2--------------4.-4.--2--------------4.-4.--2--------5--5--4---4--2--------| 
G|-2--------------4.-4.--2--------------4.-4.--2--------6--6--4---4--2--------| 
D|-2--------------4.-4.--2--------------4.-4.--2--------6--6--4---4--2--------| 
A|-0--------------2.-2.--0--------------2.-2.--0--------4--4--2---4--0--------| 
E|----------------------------------------------------------------------------| 


Pre-Chorus 
"...sorry, boo, we're though" 
e|-4--4--4---4--2-----------------------| 
B|-5--5--4---4--2-----------------------| 
G|-6--6--4---4--2-----------------------| 
D|-6--6--4---4--2--2--2--2--2--2--2--2--| 
A|-4--4--2---4--0--0--0--0--0--0--0--0--| 
E|--------------------------------------| 


Chorus: 
"'Cause I'm done cryin' over her, 
I'm done cryin' over her, 
I'm done cryin' over her" 
e|-2-2-2-2-4-4-4-4-4--4--4--4--2--2--2--2--2--2----------| 
B|-2-2-2-2-4-4-4-4-5--5--5--5--2--2--2--2--2--2----------| 
G|-2-2-2-2-4-4-4-4-6--6--6--6--2--2--2--2--2--2----------| x3 
D|-2-2-2-2-4-4-4-4-6--6--6--6--2--2--2--2--2--2----------| 
A|-0-0-0-0-2-2-2-2-4--4--4--4--0--0--0--0--0--0--------4-| 
E|-----------------------------------------------0-2-4---| 

Chorus end: 
"My hands hurt I think I'll go lay down, 
Lay..." 
e|-2-2-2-2-4-4-4-4-4--4--4--4--2--2--2--2--2--2--2--2--| 
B|-2-2-2-2-4-4-4-4-5--5--5--5--2--2--2--2--2--2--2--2--| 
G|-2-2-2-2-4-4-4-4-6--6--6--6--2--2--2--2--2--2--2--2--| 
D|-2-2-2-2-4-4-4-4-6--6--6--6--2--2--2--2--2--2--2--2--| 
A|-0-0-0-0-2-2-2-2-4--4--4--4--0--0--0--0--0--0--0--0--| 
E|-----------------------------------------------------| 


Outro: 
"...down, lay down, 
Lay down, lay down 
Lay down, lay down, 
Lay..." 
e|-2--2--2--2--2--2--2--2--4--4--4--4--4--4--4--4--| 
B|-2--2--2--2--2--2--2--2--4--4--4--4--4--4--4--4--| 
G|-2--2--2--2--2--2--2--2--4--4--4--4--4--4--4--4--| x3 
D|-2--2--2--2--2--2--2--2--4--4--4--4--4--4--4--4--| 
A|-0--0--0--0--0--0--0--0--2--2--2--2--2--2--2--2--| 
E|-------------------------------------------------| 


Ending: 
"...down" 
e|-2--2--2--2--2--2---4.-4.--2--------| 
B|-2--2--2--2--2--2---4.-4.--2--------| 
G|-2--2--2--2--2--2---4.-4.--2--------| 
D|-2--2--2--2--2--2---4.-4.--2--------| 
A|-0--0--0--0--0--0---2.-2.--0--------| 
E|------------------------------------| 


Open E tuning chords 
-------------------- 
If you want to play it more precisely, then tune your guitar 
to E-B-E-G#-B-E  and substitute these chords. 
I'm not 100% sure on the third one, but the first two are correct: 
   A6   B6   G#minor 
 e|-5----7----9----| 
 B|-5----7----9----| 
G#|-5----7----7----| 
 E|-5----7----7----| 
 B|-7----9----9----| 
 E|-5----7---------| 



************************************ 

| /   slide up 
| \   slide down 
| h   hammer-on 
| p   pull-off 
| ~   vibrato 
| +   harmonic 
| x   Mute note 
| .   staccato 
| b   Bend 
| pb  Pre-bend 
| br  Bend release 
| pbr Pre-bend release 
| brb Bend release bend 

************************************ 
		  

auto scroll beats size up size down change color hide chords drawings
tab show chords e-chords YouTube Clip e-chords hide all tabs e-chords go to top tab

share