Lynyrd Skynyrd

Simple Man (ver. 2)

Lynyrd Skynyrd

tabs Beginner beginner

by  THOMASBROUGHTON

save to print version add songbook text version e-mail correct tuner
chordsukulelecavacokeyboardtabbassdrumsharmonicaflute Guitar Pro
close

there isn't a video lesson for this song

chords

Simple Man (ver. 2)

	  		Lynyrd Skynyrd - Simple Man Tab (Original version)

e  |----------------|----------------|----------------|------------3---|
B  |------------0---|------------0---|------------1---|1-----1-------1-|   
G  |------0-------1-|------0-------0-|------2-------2-|--2-----2-------|   x2
D  |--------2-------|--------0-------|--------2-------|----------2-----|   
A  |0-2-3-----3-----|3-2-------2-----|--2-0-----0-----|----0-----------|
E  |----------------|----3-----------|3---------------|----------------|


e  |----------------|----------------|----------------|------------3---|
B  |------------0---|------------0---|------------1---|--1---1---1---1-|
G  |------0---0---1-|----------0---0-|------2---2---2-|--2-----2-------|   
D  |-------2p0------|------0---------|--------2-------|----------------|   x1
A  |0-2-3-----------|3-2----2p0------|--2-0-----------|2---------------|
E  |----------------|----3-----------|3---------------|----------------|
   


e  |----------------|----------------|----------------|----------3-0---|
B  |------------0---|------------0---|------------1---|--1---1-------1-|
G  |------0---0---1-|----------0---0-|------2---2---2-|--2-----2-------|   x1
D  |-------2p0------|------0---------|--------2-------|----------------|
A  |0-2-3-----------|3-2----2p0------|--2-0-----------|2---------------|
E  |----------------|----3-----------|3---------------|----------------|



e  |----------------|----------------|----------------|----------3-----|
B  |------------0---|------------0---|------------1---|--1---1-------1-|
G  |------0---0---1-|----------0---0-|------2---2---2-|--2-----2-------|   x1
D  |-------2p0------|------0---------|--------2-------|----------------|
A  |0-2-3-----------|3-2----2p0------|--2-0-----------|2---------------|
E  |----------------|----3-----------|3---------------|----------------|



e  |----------------|----------------|----------------|----------3-0---|
B  |------------0---|------------0---|------------1---|--1---1-------1-|
G  |------0---0---1-|----------0---0-|------2---2---2-|--2-----2-------|   x4 (1st verse)
D  |-------2p0------|------0---------|--------2-------|----------------|
A  |0-2-3-----------|3-2----2p0------|--2-0-----------|2---------------|
E  |----------------|----3-----------|3---------------|----------------|



e  |----------------|----------------|----------------|----------------|
B  |----------------|----------------|----------------|----------------|
G  |----------------|----------------|----------------|----------------|
D  |--4-5-----------|7/9/7/5---------|7/9/7/5---------|----------------|   x2
A  |0-2-3-----------|5/7/5/3-5-------|5/7/5/3-7-------|--5---5-7-------|
E  |----------------|--------3-------|--------5-------|0-3-0-3-5-------|





e  |----------------|----------------|----------------|----------------|
B  |------------0---|------------0---|------------1---|----------------|
G  |------0---0---1-|----------0---0-|------2---2---2-|----------------|   last line 2nd & 3rd verse
D  |-------2p0------|------0---------|--------2-------|----------------|
A  |0-2-3-----------|3-2----2p0------|--2-0-----------|--5---7---------|
E  |----------------|----3-----------|3---------------|0-3---5---------|



e  |----------------|----------------|----------------|----------------|
B  |----------------|----------------|----------------|----------------|
G  |----------------|----------------|----------------|----------------|
D  |----5-----------|----7/5---------|--------5-------|----------------|   x4 (chorus)
A  |----3-----------|----5/3-5-------|----7---3-------|--5---5-7-------|
E  |----------------|--------3-------|----5-----------|0-3-0-3-5-------|

   
          -----SOLO-----


e  |----------------|----------------|----------------|----------------|
B  |----------------|----------------|----------------|----------------|
G  |----------------|----------------|----------------|----------------|
D  |----------------|----------------|----------------|----------------|
A  |----------------|----------------|----------------|----------------|
E  |----------------|----------------|----------------|----------------|



e  |----------------|----------------|----------------|----------------|
B  |----------------|----------------|----------------|----------------|
G  |----------------|----------------|----------------|----------------|
D  |----------------|----------------|----------------|----------------|
A  |----------------|----------------|----------------|----------------|
E  |----------------|----------------|----------------|----------------|



e  |----------------|----------------|----------------|----------------|
B  |----------------|----------------|----------------|----------------|
G  |----------------|----------------|----------------|----------------|
D  |----------------|----------------|----------------|----------------|
A  |----------------|----------------|----------------|----------------|
E  |----------------|----------------|----------------|----------------|



e  |----------------|----------------|----------------|----------------|
B  |----------------|----------------|----------------|----------------|
G  |----------------|----------------|----------------|----------------|
D  |----------------|----------------|----------------|----------------|
A  |----------------|----------------|----------------|----------------|
E  |----------------|----------------|----------------|----------------|



e  |----------------|----------------|----------------|----------------|
B  |----------------|----------------|----------------|----------------|
G  |----------------|----------------|----------------|----------------|
D  |----------------|----------------|----------------|----------------|
A  |----------------|----------------|----------------|----------------|
E  |----------------|----------------|----------------|----------------|
		  

See also:

tabs Johnny Cash - Blue Train tabs Dave Mason - Feelin' Alright tabs Doobie Brothers - Jesus Is Just Alright tabs UFO - Doctor Doctor tabs Creedence Clearwater Revival - Keep On Chooglin tabs Creedence Clearwater Revival - Have You Ever Seen The Rain
e-chords

Other versions:

tabs Bad Company - Simple man tabs Lynyrd Skynyrd - Simple Man tabs Shinedown - Simple Man tabs Deftones - Simple man tabs Lynyrd Skynyrd - Simple man (middle part) tabs Lynyrd Skynyrd - Simple Man (ver. 2)
auto scroll beats size up size down change color hide chords drawings
tab show chords e-chords YouTube Clip e-chords hide all tabs e-chords go to top tab

share