Luzbel

Déjate Ser

Luzbel

tabs Expert expert

by  BRUNBLAZKOWSKI

save to print version add songbook text version e-mail correct tuner
chordsukulelecavacokeyboardtabbassdrumsharmonicaflute Guitar Pro
close

there isn't a video lesson for this song

chords

Déjate Ser

	  		Autor: Arturo Huizar, Raúl Greñas 


 parte 1                            parte 2        parte 3 
|----------------|----------------|--------------|-----------------| 
|----------------|----------------|--------------|-----------------| 
|-3bH----3-2-----|----------------|--------------|-4-5-4-5-4-5-4-5-| 
|------------2-3-|-5-3-2----------|--------------|-----------------| 
|----------------|--------5-3-2h3p|-2------------|-----------------| 
|----------------|----------------|---3-3\\//3---|-----------------| 


|-----------------|---------------------------------| 
|-----------------|---------------------------------| 
|-5---4-5-7---5-7-|-9-10-7-9-10-9-10-12-10-12-14----| 
|-----------------|---------------------------------| 
|-----------------|---------------------------------| 
|-----------------|---------------------------------| 

      ~~~~~                           ~~ 
|-------------17b------17-|-17-17-17-17--13-14-16-| 
|-18-21-21----------------|-----------------------| 
|-------------------------|-----------------------| 
|-------------------------|-----------------------| 
|-------------------------|-----------------------| 
|-------------------------|-----------------------| 

                     ~~ 
|-16-14-13-------13--------|----------| 
|----------16b------16--16-|-14-13----| 
|--------------------------|----------| 
|--------------------------|----------| 
|--------------------------|----------| 
|--------------------------|----------| 

              |...parte 4......................|   
|-13-14-11-13-----------------|--------11s16---| 
|--------------6-7-8br8-------|----------------| 
|-------------------------6-7-|-8br8-----------| 
|-----------------------------|----------------| 
|-----------------------------|----------------| 
|-----------------------------|----------------| 

|-16-------16-18-16-18-16-18-16-18-16-18-21-| 
|----16-18----------------------------------| 
|-------------------------------------------| 
|-------------------------------------------| 
|-------------------------------------------| 
|-------------------------------------------| 

parte final             
|-20-18-16-18-(18)-(18)-(18)-(18)-|-(18)-| 
|---------------------------------|------| 
|---------------------------------|------| 
|---------------------------------|------| 
|---------------------------------|------| 
|---------------------------------|------| 



parte 1: Empieza con un bend lento y un  
armónico artificial que requiere mucha 
práctica 
parte 2: Del traste 3 arrastra unos trastes  
y regresa al 3¡rápido! 
parte 3: son hamer on y pull off,escucha  
la rola para que te des cuenta como  
hacerlo 
parte 4: Esta parte es ¡bastante rápido!! 
y casi no se escucha excepto el slide  
o glissando del 11 al 16 
parte final: tal vez utilice un efecto 
como un delay o algún otro 
Las parte que no señalé se tocan lentas  
algunas y otras muy rápido. 
y pues a darle con todo!!!!! 
Saudos a Orquidea Huri
		  

auto scroll beats size up size down change color hide chords drawings
tab show chords e-chords YouTube Clip e-chords hide all tabs e-chords go to top tab

share