Lux˙ria

Ëdio (solo)

Lux˙ria

tabs Expert expert

by  VELHO

save to print version add songbook text version e-mail correct tuner
chordsukulelecavacokeyboardtabbassdrumsharmonicaflute Guitar Pro
close

there isn't a video lesson for this song

chords

Ëdio (solo)

	  		e|---\16----16--------------------\--------------------------------------  
b|---\--17----17--------16-----19-\--21-19-21-19-21-19-21-19-21-19-21-19- 
G|---\----18----16-14-18--17-20--\--------------------------------------- 
D|----------------------------------------------------------------------- 
A|----------------------------------------------------------------------- 
E|----------------------------------------------------------------------- 
  
C#5 E5 F#5 A5 
Esse meu ˇdio Ú... 

e|---------------------------------------------------------------------  
b|--------------------------------------------------------------------- 
G|----6--8--9--11---13---14---14---13---------------------------------- 
D|--------------------------------------------------------------------- 
A|--4--6--7--9---11---12---12---11------------------------------------- 
E|--------------------------------------------------------------------- 
		  

Full key step upFull key step up
Half key step upHalf key step up
Half key step downHalf key step down
Full key step downFull key step down
hide glossary

See also:

tabs ReašŃo em Cadeia - Os Dias (Intro) tabs Sandy & J˙nior - Maria Chiquinha (ac˙stico Mtv) tabs Roupa Nova - A Lenda (solo) tabs Papas da LÝngua - No Calor da Hora tabs Dragon Ball - Dragon Ball Gt tabs Felipe Dylon - Deixa Disso
e-chords

Other versions:

tabs A Palo Seko - Odio tabs Romeo Santos - Odio tabs Lux˙ria - Ëdio (solo) tabs A Palo Seko - Odio El 92 tabs Dos Minutos - Odio Laburar
auto scroll beats size up size down change color hide chords drawings
tab show chords e-chords YouTube Clip e-chords hide all tabs e-chords go to top tab

share