Luna Sea

home > Luna Sea

Jesus Tab

Luna Sea

Difficulty: nolevelnolevel

by joaoewerton

tuner correct add songbook print version text version save to e-mail
chordsukulelecavacokeyboardtabbassdrumsharmonicsflute Guitar Pro
chords

Jesus

	  
Solo 

e|-----------------------------------------------------------------------------------------------------------| 
B|-16~~~~~~~~--16----14----12----14----14b16----14----12----11----8----9----4----16~~--16--16--14--14--12--12| 
G|-----------------------------------------------------------------------------------------------------------| 
D|-----------------------------------------------------------------------------------------------------------| 
A|-----------------------------------------------------------------------------------------------------------| 
E|-----------------------------------------------------------------------------------------------------------| 

e|----------------------------12-----------------11----12----14----------14----15----------15----16----23~~~~| 
B|----13----------14----------------14b16~~~~~~~~------------------16----------------16----------------------| 
G|----------14----------15-----------------------------------------------------------------------------------| 
D|-----------------------------------------------------------------------------------------------------------| 
A|-----------------------------------------------------------------------------------------------------------| 
E|-----------------------------------------------------------------------------------------------------------| 

e|----16----18----19----21----23----24----24b26--------------------------------------------------------------| 
B|-----------------------------------------------------------------------------------------------------------| 
G|-----------------------------------------------------------------------------------------------------------| 
D|-----------------------------------------------------------------------------------------------------------| 
A|-----------------------------------------------------------------------------------------------------------| 
E|-----------------------------------------------------------------------------------------------------------| 


************************************ 

| b  Bend 
| ~  Vibrato 

************************************ 
	  

there isn't a video lesson for this song

request
Search
auto scroll beats size up size down change color hide chords drawings
tab show chords e-chords YouTube Clip e-chords hide all tabs e-chords go to top tab