Luis Alberto Spinetta

home > Luis Alberto Spine...

Vidami Tab

Luis Alberto Spinetta

Difficulty: nolevelnolevel

by aman%5Fclaudino

tuner correct add songbook print version text version save to e-mail
chordsukulelecavacokeyboardtabbassdrumsharmonicsflute Guitar Pro
chords

Vidami

  		     La guitarra acompaña con este  punteo arpegiado. 
 No hay rasgueo ni acordes en la guitarra   


                
         Cejilla  en 7mo    traste        
       |     arpegiado         |       punteado      | 
  e|-------------------------------------------------- 
  B|-------------7---10--7--10------------------7----- 
  G|----------9-------------------9--9-7--9--7----9--- 
  D|-------9------------------------------------------ 
  A|-------------------------------------------------- 
  E|---7---------------------------------------------- 
       i   m  a  i   ñ   i   ñ    a  a i  a  i  i a          

      Cej. 7mo      cej.  5to 

      |  arpegio               |    picado (las dos    
                                  cuerdas a la vez)                                                                                           
   |-------------------------5------------ 
   |------------8--------8--------------                                                                                                                                                                                                                                        
   |----------9--------5-----------9------ 
   |-------9-----------------------9--- 
   |----------------5------------------- 
   |----7--------------------------------- 

        i  a  ñ m   i  i ñ   i     a 
                                   m                      


               vuelve a empezar 
                                   
vidami 
al fin soy feliz 
vidami 
abrázame en la distancia 
contigo asi lejos 
estoy en extasis 
ahora si 
ahora si 

con piano: 

corre con tu vida 
sobre un libro corre y corre 
ya lejos de la trampa es esperanza 
y alguien que se asusta 
y se desangra por amor 
dice que la felicidad injusta es, 
excepto al morir... 


con guitarra 

el buho ve 
el buho ve por mi 
vidami 
apurate 
apurate a no volver 
vidami 
el buho ve  
el buho ve 

con piano 

es un vuelo limpio 
entre tuneles de luz 
que se estremecen con la noche 
y alguien oye la nada 
y sus oidos inventan 
y solo enfrentan la sentencia: 
la de su corazón
	  

Search Paypal
auto scroll beats size up size down change color hide chords drawings
tab show chords e-chords YouTube Clip e-chords hide all tabs e-chords go to top tab