Luis Alberto Spinetta

home > Luis Alberto Spine...

Las Olas Tab

Luis Alberto Spinetta

Difficulty: nolevelnolevel

by tarikike

tuner correct add songbook print version text version save to e-mail
chordsukulelecavacokeyboardtabbassdrumsharmonicsflute Guitar Pro
chords

Las Olas

  		Autor: Spinetta 


Las Olas 


INTRO A: 

e   /----------------------------------------------------------------------------------------- 
B  /----------------------------------------------------------------------------------------- 
G  /----------------------------------------------------------------------------------------- 
D  /-------4^ ^ ^ ^ ^ 4----4^ ^ ^ ^ ^ ---4^ ^ ^ ^ ^---- 4^ ^ ^ ^ ^--------4^ ^ ^ ^ ^ - 
A  /----------------------------------------------------------------------------------------- 
E  /----------------------------------------------------------------------------------------- 

INTRO B: 

e   /-- -------------------------------------------------------------------------------------/12- 
B  /------------------7-------------------------------------------7----------12-----10------- 
G  /-----------6--7----------------------------------------6--7-----------------11----------- 
D  /----7 / 9----------------7—7h5--7-^-^------7 / 9-------------------------------------- 
A  /-------------------------------------------------------------------------------------------- 
E  /-------------------------------------------------------------------------------------------- 

e   /----------------------------------------------------12------------------------------------------- 
B  /------------------7----12---10-----------------------15(17)-----------------7---12-----10^^^------ 
G  /-----------6--7-------------------12--11---9^-^----------------------6--7-----------11------------ 
D  /----7 / 9------------------------------------------------------7 / 9------------------------------ 
A  /-------------------------------------------------------------------------------------------------- 
E  /-------------------------------------------------------------------------------------------------- 


( toda la estrofa tiene los mismos acordes) 

Bm7                            A5   Bm7                      A5 
Vive pendiente de la luna el reloj, actores que conservan su suerte 
Pide de más, de más te llenaras y luego cuesta mas la escalera. 

ESTRIBILLO 
                                             Gmaj7                              F#m11 
e   /--------------------------------------------2------------------------------0----------------------- 
B  /--------------------------------3---------- 0-------------------------------0----------------------- 
G  /--------------------------------4----------4--------------------------------2------------2 /-4 /-2- 
D  /--------------------------------4---------5---------------------------------2------------2 /-4 /-2- 
A  /----------------------------------------------------------------------------------------------------- 
E  /---------------------------------3------------------------------------------2---------------------- 
                Te perderás las   olas.......................   que se agitan gigantes 

             Em7                      Gmaj7/5dism                       F#7/5+      F#7 
e   /-----------0---------------------2---2--------------------------------------------------------- 
B  /----------3-----------------------2---2------------------------------3----------2--------------- 
G  /--------0-------------------------4---4------------------------------3----------3-------------- 
D  /-------2--------------------------5---5------------------------------2----------2--------------- 
A  /------2------------------------------------------------------------------------------------------- 
E  /----0-----------------------------3---3------------------------------2----------2--------------- 
                         Te perderás el día                    a juzgar por tus ojos...     (madonna santa) 




INTRO B 

( estrofa y estribillo siguientes igual que los anteriores) 

oh, jamás hubo sangre en la canción, el ciego en tu película todo lo ve 
la llave era inerte, debes aprender, la turba no perdonará ese cielo... 

Te perderás las olas... 
Que se agitan gigantes 
Te perderás el día, 
A juzgar por tus ojos... oh ,sí     Va! 

RIFF  ( G5 – A5) 

e   /-------------------------------------------------------------------------- 
B  /--8—8 / 10--10---------8—8 /10--10-------8—8 / 10--10------10b(11) /8-10--}BIS 
G  /--7—7 / 9----9--------7—7 /9----9------ -7—7 /  9---9-----------------} 
D  /---------------------------------------------------------------------------- 
A  /---------------------------------------------------------------------------- 
E  /---------------------------------------------------------------------------- 

( el sólo esta aproximado...) 
e   /---------------------------------------------------------------------- 
B  /-----10b(12)-----------------------------------------------------------} 
G  /-----------------9-^^^--9h7--9-9—9h7-----------------------------------} 
D  /----------------------------------------------9-/-7--------------------} 4 BIS 
A  /----------------------------------------------------7--7---------------} 
E  /----------------------------------------------------------------------- 

(Después de repetir el sólo vuelve al RIFF  para luego volver al INTRO B) 

(última estrofa y estribillo) 

Oh, alguien toma un lápiz, y nada escribirá, las formas de las nubes se olvidarán. 
La llave era inerte, debes aprender, la turba no perdonará ese cielo... 

Te perderás las olas.... 
Que se agitan gigantes, 
Te perderás el día, 
Te perderas el Giorno.... ohhhh 

( ALGUIEN SABE QUE GRITA SPINETTA ACÁ?????) 

(la canción finaliza con el RIFF y el sólo, luego hace una pausa y comienza una  
bajada de acordes con wawa hasta el FADE OUT) 

bueno creo que esta bien, a pesar de no estar perfecta, creo que esta  
bastante entendible, cualquier cosa, escríbanme.... 
chauchas 

José.
	  

Search Paypal
auto scroll beats size up size down change color hide chords drawings
tab show chords e-chords YouTube Clip e-chords hide all tabs e-chords go to top tab