Luis Alberto Spinetta

home > Luis Alberto Spine...

Hombre De Lata Tab

Luis Alberto Spinetta

Difficulty: nolevelnolevel

by tarikike

tuner correct add songbook print version text version save to e-mail
chordsukulelecavacokeyboardtabbassdrumsharmonicsflute Guitar Pro
chords

Hombre De Lata

(Luis Alberto Spinetta)

  		Esta adaptado para guitarra eléctrica así que 
es medio “punky”, (sin ofender!) 

INTRO: 

  RIFF 1 

Guitarra:(Compás: 4/4) 
E|---------------------------------} 
B|---------------------------------} 
G|---------------------------------} 
D|-4-2-2-2-2-2-2-4-2-2-2-2-2-2-2-2-} 
A|-2-0-0-0-0-0-0-2-0-0-0-0-0-0-0-0-} 
E|---------------------------------} 
   B5    A5      B5      A5 

 {----------------------------------------| 
 {----------------------------------------| 
 {---------------------------------4-4-4--| 
 {-4-2-2-2-2-2-2-2-2-4-2-2-2-2-2-2-2-2-2--| 
 {-2-0-0-0-0-0-0-0-0-2-0-0-0-0-0-0-0-0-0--| 
 {----------------------------------------| 

  B5       A5       B5     A5       E5 
                  (x 2) 

Bajo:* 
G|----------------------------------------------} 
D|-9-(7)--7-7----9--(7--7)-(7-7)---9-(7)--7-7---} 
A|----------------------------------------------} 
E|----------------------------------------------} 

 {--------------------9)-----| 
 {-----9—(7--7)---(7---------| 
 {---------------------------| 
 {---------------------------| 
                   (x2) 
*el bajo original va asi (si-la) 
pero suena bien tocando una octava abajo 

Ult. vez G|---------------| 
         D|-(...)7--------| 
         A|---------7-7---| 
         E|---------------| 

RIFF 2 
Guitarra: 
E|---------------------------------------} 
B|---------------------------------------} 
G|---------------------------------------} 
D|-7-7-7-7-7-7-7-7-7-7-7-7-5-5-5-5-5-5-5-} 
A|-5-5-5-5-5-5-5-4-4-4-4-4-3-3-3-3-3-3-3-} 
E|---------------------------------------} 
        D5         C#(5+)       C5 

 {---------------------------| 
 {---------------------------| 
 {---------------------------| 
 {-4-4-4-4-4--4-2—2-2-2-2-...| 
 {-2-2-2-2-2—-2-0-0-0-0-0-...| 
 {---------------------------| 
   B5            A5 

...continua Riff 1 (x 1) 

Bajo: 
G|---------------------------------------} 
D|---------------------------------------} 
A|-5---5--(5-5)---4---4—(4-3)-3—-3—-(3-3)} 
E|---------------------------------------} 


 {--------------------------| 
 {------------9-(7)--7-7-...| 
 {-2--2—(2-2)---------------| 
 {--------------------------| 


Riff 2 
  Hombre de lata 
                          Riff 1 (x1) 
  sólo tu lengua lo  resiste 
Riff 2 
  y cuanto más pela 
                               Riff 1 (x1) 
  más te complace , ves que banca. 


  RIFF 3** parte A 

Guitarra 1: 
E|---------------------------------------------} 
B|---------------------------------------------} 
G|---5-(5)-----------------------(5)-5---------} 
D|---5-(5)—4h5-4---(5)-5---------(5)-5-4h5-4---} 
A|---3-(3)-------5-(5)-5-----3-0-(3)-3-------5-} 
E|-----------------(3)-3-3-5-------------------} 
     C5             G5             C5 

 {-----------------------|- 
 {-----------------------|- 
 {-----------------------|- 
 {-(5)-5---------(2)-2-2-|- 
 {-(5)-5-----3---(2)-2-2-|- 
 {-(3)-3-3-5---5-(0)-0-0-|- 
   G5            E5 

** se toca algo rápido. 

Guitarra 1: Parte B 
E-|------------------------------------|-------| 
B-|------------------------------------|-------| 
G-|-(7)-7---(4)—(5)--------------------|-------| 
D-|-(7)-7---(4)—(5)--------------------|-------| 
A-|-(5)-5---(2)—(3)--------------------|-------| 
E-|------------------------------------|-------| 

Guitarra 2 (acústica)                           (x3) 
E-|----------------------0-------------|-((0))-| 
B-|--------------------5---0-----------|-((0))-| 
G-|-----7------------5-------5-------5-|-((5))-| 
D-|---7--------4---5-----------5---5---|-((5))-| 
A-|-5--------2---3---------------3-----|-((3))-| 
E-|------------------------------------|-------| 
    D5      B5  C5       C                C7+ 

(( )) -dejar sonando-. 


Bajo: Riff 3 parte A 

G|----------5---------------------------| 
D|--------------------------------------| 
A|-0-2-3--3---2-0------0h2--3-3-3-2-0---| 
E|----------------3-3-----------------3-| 
       C          G         C         G 

                      Parte B 
 {-----------------|-----------------| 
 {-----------------|-----------------| 
 {---2------7-7----|-5-5—2—-(3)--0-0-| 
 {-3--3-2-0-----0x-|-----------------| 
          E          D   B  (C) 

ESTRIBILLO: 


Riff 3 parte A 

            C5          G5 
Tarde o temprano sólo nieve comerás 
C5                   G5 
nieve de su pecho tibio 
E5                 (parte b) D5  B5  C5 
   habrás de liquidar  tu vida 
         D5  B5  C5 
en  un  día , 
     D5  B5  C5 
Tu  vida 
         D5  B5  C5   C7+ 
en  un  día. 


SOLO:*** 

(Base: Guitarra y Bajo = Riff 1) 

E|--------------------------|-----------------------} 
B|--------------------------|-------------6h7-8-(8)-} 
G|--7h6------7h6--------6---|-7h6-----6h7-----------} 
D|------9-7------9-7------7-|-----9-7---------------} 
A|-------------------10-----|-----------------------} 
E|--------------------------|-----------------------} 

Cont. 
E{-----------------------|--------------------------| 
B{-----------------------|--------------------------| 
G{-7h6-----7h6--------6--|-7h6-----6h7--------------| 
D{-----9-7-----9-7------7|-----9-7------(5)—(7)-----| 
A{-----------------10----|--------------------------| 
E{-----------------------|--------------------------| 

*** guitarra con algunos efectos 


Riff 2 
   Ojos sin diablo 
                            Riff 1 (x1) 
sólo te comes lo que es herido 
Riff 2 
   oso de fibra 
                                Riff 1 (x1) 
ya  no  te  queda  ni  la  traición.   no 



Riff 3 
            C5          G5 
Tarde o temprano sólo tierra quedará 
 C5                   G5 
tierra con tu rayo al cielo 
E5                          D5  B5  C5 
   habrás de preservar la vida 
      D5  B5  C5 
todo día , 
       D5  B5  C5 
 la  vida, 
       D5  B5  C5  C7+ 
 cada día. 


Inter: Guitarra y Bajo = Riff 1 


SE REPITEN LAS MISMAS ESTRUCTURAS 

Hombre de lata 
sólo tu lengua lo resiste 
y cuanto más huyes 
más te complace , y ves que banca. 




ESTRIBILLO 

Tarde o temprano sólo nieve comerás 
nieve de su pecho tibio 
habrás de liquidar tu vida 
en un día  ,   un   día  ,     en un día. 

SOLO: (BASE: RIFF 1) y... 

Fin. 

Por cualquier consulta, 
corrección o lo que sea escribime. 
Para que siempre escuchemos 
musica como esta!!!
	  

Full key step upFull key step up
Half key step upHalf key step up
Half key step downHalf key step down
Full key step downFull key step down
Search Paypal
auto scroll beats size up size down change color hide chords drawings
tab show chords e-chords YouTube Clip e-chords hide all tabs e-chords go to top tab