Lucho Barrios

Viejo

Lucho Barrios

tabs Advanced advanced

by  HUGO_RODRIGUES

save to print version add songbook text version e-mail correct tuner
chordsukulelecavacokeyboardtabbassdrumsharmonicaflute Guitar Pro
close

there isn't a video lesson for this song

chords

Viejo

	  		Hola q tal me llamo rudy, bueno esta canción va dedicada para mi padre, 
bueno les aconsejo q primero ya la hayan escuchado para q se les haga fácil 
el aprender de esta canción bueno sin más q decir hay les va: 

1 ||---8------8------7------------------------- 
2 ||-----10-----10-----9--10-------10------8--- 
3 ||--------9------9---------10------10------9- 
4 ||----------------------------10------10----- 
5 ||------------------------------------------- 
6 ||------------------------------------------- 

1 ||---------------------------- 
2 ||---9-10-12-12-10-12-13-10--- 
3 ||---------------------------- 
4 ||---------------------------- 
5 ||---------------------------- 
6 ||---------------------------- 

1 ||---------------------------- 
2 ||---9-10-12-12-10-12-13-10--- 
3 ||---------------------------- 
4 ||---------------------------- 
5 ||---------------------------- 
6 ||---------------------------- 

1 ||---8------8------7------------------------- 
2 ||-----10-----10-----9--10-------10------8--- 
3 ||--------9------9---------10------10------9- 
4 ||----------------------------10------10----- 
5 ||------------------------------------------- 
6 ||------------------------------------------- 

1 ||---------------------------- 
2 ||---9-10-12-12-10-12-13-10--- 
3 ||---------------------------- 
4 ||---------------------------- 
5 ||---------------------------- 
6 ||---------------------------- 

1 ||---10-12-13-13-12-10-15-12-- 
2 ||---------------------------- 
3 ||---------------------------- 
4 ||---------------------------- 
5 ||---------------------------- 
6 ||---------------------------- 

1 ||---------------10-10-------- 
2 ||---12-12-12-12-------13-10-- 
3 ||---------------------------- 
4 ||---------------------------- 
5 ||---------------------------- 
6 ||---------------------------- 

1 ||---10-10-10-10-15-15-12----- 
2 ||------------------------13-- 
3 ||---------------------------- 
4 ||---------------------------- 
5 ||---------------------------- 
6 ||---------------------------- 

1 ||---------------10-10-------- 
2 ||---12-12-12-12-------13-10-- 
3 ||---------------------------- 
4 ||---------------------------- 
5 ||---------------------------- 
6 ||---------------------------- 

1 ||---12-10-12-10-12-10-12----- 
2 ||------------------------13-- 
3 ||---------------------------- 
4 ||---------------------------- 
5 ||---------------------------- 
6 ||---------------------------- 

1 ||---12-10-12-10-12-10-12----- 
2 ||------------------------13-- 
3 ||---------------------------- 
4 ||---------------------------- 
5 ||---------------------------- 
6 ||---------------------------- 

Bueno eso es todo por ahora, 
cualquier duda a mi correo q es [email protected]
		  

auto scroll beats size up size down change color hide chords drawings
tab show chords e-chords YouTube Clip e-chords hide all tabs e-chords go to top tab

share