Low

Cut

Low

tabs

by  TARIKIKE

save to print version add songbook text version e-mail correct tuner
chordsukulelecavacokeyboardtabbassdrumsharmonicaflute Guitar Pro
close

there isn't a video lesson for this song

chords

Cut

	  		

Tuning:D 

Main Riff 
e|---------------------------------------------------| 
B|-----------------0--------------------0------------| 
G|-------0-------0---0--------0-------0---0----------| 
D|-----4-------4------------4-------4----------------| 
A|---5-------5------------4-------4------------------| 
D|-3-------3------------2-------2--------------------| 

Solo 
e|------------------------------------------------------------------| 
B|------------------------------------------------------------------| 
G|------------------------------------------------------------------| 
D|-5--11-6---5--11-6---5--14--6---5--14--6---5--11-14--17--14-------| 
A|-5--11-6---5--11-6---5--14--6---5--14--6---5--11-14--17--14-------| 
E|-3--9--4---3--9--4---3--12--4---3--12--4---3--9--12--15--12-------| 
		  

auto scroll beats size up size down change color hide chords drawings
tab show chords e-chords YouTube Clip e-chords hide all tabs e-chords go to top tab

share