Love And Death

home > Love And Death

Paralyzed Tab

Love And Death

Difficulty: nolevelnolevel

by educastilho

tuner correct add songbook print version text version save to e-mail
chordsukulelecavacokeyboardtabbassdrumsharmonicsflute Guitar Pro
chords

Paralyzed

  		The song is played in Drop G# not Drop A 
G#-D#-G#-C#-F-A# (low to high) 
I play it on my 6 string baritone guitar  

Intro:Little Distortion                                                      
e|------------------------------------------------------------------------------| 
B|------------------------------------------------------------------------------| 
G|--7-------7-------------------------------------------------------------------| 
D|--x(20x's)x-----6---------------6---------7777---6-------------6--------------| 
A|--5-------5b----5---------------5---------6666---5-------------5--------------| 
E|---------------0---0-0-00-00--00---0-0-00------0---0-0-000-0-00---0-0-000-----| 
When you strum the octave towards the end slowly bend the 5 while strumming 

Intro2:Distortion 
e|---------------------------------------------------------------------------| 
B|---------------------------------------------------------------------------| 
G|---------------------------------------------------------------------------| 
D|--6---------------6---------7777---6---------------6---------7777----------| 
A|--5---------------5---------6666---5---------------5---------6666----------| 
E|-0--0-0-00-00--00---0-0-000-------0---0-0-000-0--00---0-0-000--------------| 

Verse:Little Distortion    (4x's)             
e|---------------------------------------| 
B|---------------------------------------| On the 2nd and 4th time instead of playing the chord  
G|---------------------------------------| hit a few open notes on the sixth string and the 3rd 
D|------------------------------7777-----| and 4th time is full distortion 
A|------------------------------6666-----| 
E|-0-0---0-0-00-00-0-0-00-0-0-00---------| 


Chorus                                                     These are 10's 
e|----------------------------------------------------------------------------------------| 
B|----------------------------------------------------------------------------------------| 
G|----------------------------------------------------------------------------------------|  
D|-77777777--55555555--33333333-55555555-77777777-99999999-1010101010101010-7777-7777-----|  
A|-55555555--33333333--11111111-55555555-55555555-77777777-8-8-8-8-8-8-8-8--6666-6666-----| 
E|------------------------------55555555--------------------------------------------------| 
Chorus Continued 
e|------------------------------------------------------------------------------| 
B|------------------------------------------------------------------------------| 
G|-7------9------10------12------------14--7------9------10---------------------| 
D|-x(8x's)x(8x's)x-(8x's)-x(about 8x's)-x--x(8x's)x(8x's)x(8x's)-7777-7777------| 
A|-5------7------8-------10------------12--5------7------8-------6666-6666------| 
E|------------------------------------------------------------------------------| 


Breakdown?? 2:12      (8x's)  then (8x's) 
e|-------------------------/-----------------------------------| 
B|-------------------------/-----------------------------------| 
G|-------------------------/-----------------------------------| 
D|-------------------------/-----------------------------------| 
A|-------------------------/-----------------------------------| 
E|-4-3-2-6-5-4-4-3-2-3-2-1-/--4-3-2-6-5-4-4-3-2-3-2-1----------| 
pm . . . . . . . . . . . . 
Breakdown2 2:56 
e|-------------------------------------------------------------------------| 
B|-------------------------------------------------------------------------| 
G|-------------------------------------------------------------------------| 
D|---6---------------6--------7777---------------------6----------7777-----| 
A|---5---------------5--------6666---------------------5----------6666-----| 
E|--0--0-0-00-00---00--0-0-000------------00-0-000-0-00---0-00-000---------| 

SONG ORDER: 
Intro 
Intro2 
Verse 
Chorus 
Intro2 
Verse 
Chorus 
Breakdown 
Breakdown2 
Chorus 
Intro2 

I tried tabbing this song out it wasn't easy i tried my best i hope you guys can understand it 
oh and ignore the standard tuning and Drop A it's obviously in Drop G# 
	  

Full key step upFull key step up
Half key step upHalf key step up
Half key step downHalf key step down
Full key step downFull key step down
Search Paypal
auto scroll beats size up size down change color hide chords drawings
tab show chords e-chords YouTube Clip e-chords hide all tabs e-chords go to top tab