Lost Acapulco

Tangatutanga

Lost Acapulco

tabs Expert expert

by  PACORREA

save to print version add songbook text version e-mail correct tuner
chordsukulelecavacokeyboardtabbassdrumsharmonicaflute Guitar Pro
close

there isn't a video lesson for this song

chords

Tangatutanga

	  		TANGA TUTANGA TUTANGA! 
 
|--------------------------------------| 
|------0----------0--------------------| 
|-9-9----7-8-9-9----7-8-9--9-9-9-7-9---| 
|--------------------------------------| 
|--------------------------------------| 
|--------------------------------------| 
 
|-0------------0-------------------------------| 
|---8-9-10-10----8-9-10-10--0------------------| 
|-----------------------------7-8-9--9-9-9-7-9-| 
|----------------------------------------------| 
|----------------------------------------------| 
|----------------------------------------------| 
 
|---5-6-7-7--0-------------------------------| 
|-7------------8-9-10-10--0------------------| 
|---------------------------7-8-9--9-9-9-7-9-| 
|--------------------------------------------| 
|--------------------------------------------| 
|--------------------------------------------| 
 
SOLO: 
 
|--------------------------------------| 
|-10h12-12-12-12-10--------------------| 
|-------------------12-9--9-9-12-9---9-| 
|----------------------------------12--| X2 
|--------------------------------------| 
|--------------------------------------| 
 
|--------------------------------------------| 
|-10h12-12-12-12-10----10--10-10-12-10---10--| 
|-------------------12-----------------12----| 
|--------------------------------------------| 
|--------------------------------------------| 
|--------------------------------------------| 
 
|----------------------------------------------------| 
|-10h12-12-12-12-10-------------------------------10-| 
|-------------------12-9--9-9-12-9---9--9-12-9-12----| 
|----------------------------------12----------------| 
|----------------------------------------------------| 
|----------------------------------------------------| 
 
FINAL 
|-7-7---------------------------| 
|-----10-10--0------------------| 
|--------------7-8-9--9-9-9-7-9-| 
|-------------------------------| 
|-------------------------------| 
|-------------------------------| 
 
Para que el pelusa se lo aprenda 

		  

See also:

tabs Lost Acapulco - Hollywood Baby tabs Lost Acapulco - Tangatutanga tabs Los Traseros Empapados - No Me Haras Sufrir tabs Brujeria - Ritmos Satanicos tabs Lost Acapulco - Mpm La Quebradora tabs Lost Acapulco - Incidente En Calle Dakota
e-chords

Other versions:

tabs Lost Acapulco - Tangatutanga
auto scroll beats size up size down change color hide chords drawings
tab show chords e-chords YouTube Clip e-chords hide all tabs e-chords go to top tab

share