Lost Acapulco

Somos Lost Acapulco

Lost Acapulco

tabs

by  TERCMORAES

save to print version add songbook text version e-mail correct tuner
chordsukulelecavacokeyboardtabbassdrumsharmonicaflute Guitar Pro
close

there isn't a video lesson for this song

chords

Somos Lost Acapulco

	  		-------------------------------------------------- 
-------------------------------------------------- 
-------------------------------------------------- 
---------------0-0-0-3-5-------------------------- 
-0-0-0-3-5---------------------------------------- 
-------------------------------------------------- 

*muchas veces 
------------------------------------------------------------ 
------------------------------------------------------------ 
------------------------------------------------------------ 
------------------------------------------------------------ 
-0-0-3-5-7-0-0-3-5-7/12*-10-12*-10--12-10-12-10-12-10-12-10- 
------------------------------------------------------------ 


------------------------------------------------------------------ 
------------------------------------------------------------------ 
------------------------------------------------------------------ 
------------------------------------------------------------------ 
-17-15-18-17-15---16-15-14-13-12-11-10-9-8-7-5-9-8-7-5--0-0-0-3-5- 
------------------------------------------------------------------ 

*muchas veces 
--------------------|--------------------|--------------| 
--------------------|--------------------|--------------| 
--------------------|--------------------|--------------| 
--------------------|------------------- |--------------| 
12-12-12-12-0-------|-----19-19-17-17----|----12*/19*---| 
-----(x4)-----------|---------(x4)-------|--------------| 
-------------------------------------------------------- 

-------------------------------------------------- 
-------------------------------------------------- 
-------------------------------------------------- 
-------------------------------------------------- 
-16-15-14-13-12-11-10-9-8-7-5-9-8-7-5--0-0-0-3-5-- 
--------------------------------------------------
		  

See also:

tabs Lost Acapulco - Hollywood Baby tabs Lost Acapulco - Tangatutanga tabs Los Traseros Empapados - No Me Haras Sufrir tabs Brujeria - Ritmos Satanicos tabs Lost Acapulco - Mpm La Quebradora tabs Lost Acapulco - Incidente En Calle Dakota
e-chords

Other versions:

tabs Lost Acapulco - Somos Lost Acapulco
auto scroll beats size up size down change color hide chords drawings
tab show chords e-chords YouTube Clip e-chords hide all tabs e-chords go to top tab

share