Losing September

Betrayed

Losing September

tabs

by  TAMAMOREIRA

save to print version add songbook text version e-mail correct tuner
chordsukulelecavacokeyboardtabbassdrumsharmonicaflute Guitar Pro
close

there isn't a video lesson for this song

chords

Betrayed

	  		

| /   slide up 
| \   slide down 
| h   hammer-on 
| p   pull-off 
| v   vibrato 
| +   harmonic 
|n,h, natural harmonic 
| *   Pinch Harmonic 
| x   Mute note 
| b   Bend 
| pb  Pre-bend 
| br  Bend release 
| pbr Pre-bend release 
| brb Bend release bend 

************************************ 



Tuning: Drop B       B-F#-B-E-G#-C#  

First half of song is in 4/4, then finishes in 6/8 at BRIDGE 1.  
  
  |INTRO RIFF 1 
  |Guitar 1 & 2    4/4 
C#|------------------------------|--------------------------| 
G#|------------------------------|--------------------------| 
E |------------------------------|--------------------------|     
B |-----7777--------7777------77-|--------------------------|  PLAY 4 X 
F#|-4----------4----------4------|-0----0--00-----2--2--22--| 
B |-4----------4----------4------|-0----0--00-----2--2--22--| 
  |     n,h,        n,h,     n,h,    
   


                     

**************************************************************************************** 




|verse 1 
|Guitar 1    4/4 
|-----------------------------------------|-----------------------------------------| 
|-----------------------------------------|-----------------------------------------| 
|-----------------------------------------|-----------------------------------------|     
|-----------------------------------------|-----------------------------------------|  
|-----------------------------------------|-----------------------------------------| 
|-4444-4444-4444-4444-7777-7777-7777-7777-|-0000-0000-0000-0000-2222-2222-2222-2222-| 
|PM................................................................................ 
|                                                                                     2 X             
|Guitar 2   
|-----------------------------------------|-----------------------------------------| 
|-----------------------------------------|-----------------------------------------| 
|-----------------------------------------|-----------------------------------------| 
|-----------------------------------------|-----------------------------------------| 
|-9999-9999-9999-9999-7777-7777-7777-7777-|-5555-5555-5555-5555-2222-2222-2222-2222-| 
|-----------------------------------------|-----------------------------------------| 
|PM................................................................................ 





**************************************************************************************** 





|INTRO RIFF 2 
|Guitar 1 & 2    4/4 
|------------------------------|--------------------------| 
|------------------------------|--------------------------| 
|------------------------------|--------------------------|     
|-----7777--------7777------77-|--------------------------| 4 X 
|-4----------4----------4------|-0----0--00-----2--2--22--| 
|-4----------4----------4------|-0----0--00-----2--2--22--| 
|     n,h,        n,h,     n,h,   




**************************************************************************************** 





|verse 2 
|Guitar 1   4/4 
|-----------------------------------------|-----------------------------------------| 
|-----------------------------------------|-----------------------------------------| 
|-----------------------------------------|-----------------------------------------|     
|-----------------------------------------|---------------------------------PAUSE---|  
|-----------------------------------------|-----------------------------------------| 
|-4444-4444-4444-4444-7777-7777-7777-7777-|-0000-0000-0000-0000-2222-2222-2---------| 
|PM........................................................................ 
|                                                                                                 
|Guitar 2   
|-----------------------------------------|-----------------------------------------| 
|-----------------------------------------|-----------------------------------------| 
|-----------------------------------------|-----------------------------------------| 
|-----------------------------------------|---------------------------------PAUSE---| 
|-9999-9999-9999-9999-7777-7777-7777-7777-|-5555-5555-5555-5555-2222-2222-2---------| 
|-----------------------------------------|-----------------------------------------| 
|PM......................................................................... 





|verse 2 
|Guitar 1      4/4 
|-----------------------------------------|-----------------------------------------| 
|-----------------------------------------|-----------------------------------------| 
|-----------------------------------------|-----------------------------------------| 
|-----------------------------------------|-----------------------------------------|     
|-4444-4444-4444-4444-7777-7777-7777-7777-|-0000-0000-0000-0000-2222-2222-2222-2222-| 
|-4444-4444-4444-4444-7777-7777-7777-7777-|-0000-0000-0000-0000-2222-2222-2222-2222-| 
|                                                                                                  
|Guitar 2   
|---------------------------------------------------------| 
|---------------------------------------------------------| 
|-11111111-11111111-11111111-11111111-9999-9999-9999-9999-| 
|---------------------------------------------------------| 
|--9-9-9-9--9-9-9-9--9-9-9-9--9-9-9-9-7777-7777-7777-7777-| 
|---------------------------------------------------------| 





|verse 2 
|Guitar 1     4/4 
|-------------------------------------------------------------------------------| 
|-------------------------------------------------------------------------------| 
|-------------------------------------------------------------------------------| 
|-----------------------------------------------------------------------PAUSE---| 
|--0-0-0-0--0-0-0-0--0-0-0-0-0-0-0-0---2-2-2-2---2-2-2-2---2-2-2-2---2----------| 
|--0-0-0-0--0-0-0-0--0-0-0-0-0-0-0-0---2-2-2-2---2-2-2-2---2-2-2-2---2----------| 
|                                                                                                  
|Guitar 2   
|-------------------------------------------------------------------------------| 
|-------------------------------------------------------------------------------| 
|-14141414-14141414-14141414-14141414-14p12-----14p12-----16p14-----16p14-16p14-| 
|------------------------------------------14p12-----14p12-----16p14------------| 
|-12121212-12121212-12121212-12121212-------------------------------------------| 
|-------------------------------------------------------------------------------| 



**************************************************************************************** 





|INTRO RIFF 3 
|Guitar 1 & 2    4/4 
|------------------------------|--------------------------| 
|------------------------------|--------------------------| 
|------------------------------|--------------------------|     
|-----7777--------7777------77-|--------------------------| 4 X 
|-4----------4----------4------|-0----0--00-----2--2--22--| 
|-4----------4----------4------|-0----0--00-----2--2--22--| 
|     n,h,        n,h,     n,h,   




**************************************************************************************** 



(1:36) 
|BRIDGE 1 
|Guitar 1   6/8 
|----------------------------------------------------| 
|----------------------------------------------------| 
|----------------------------------------------------| 
|-4--------------------------------------------------| 
|-4--------------------------------------------------| 
|-4--------------------------------------------------| 
|Let ring out 
|                                                                                                 
|Guitar 2    
|----------------------------------------------------| 
|-7p0-007p0-007p0-007p0--0010p0-0010p0-0010p0-0010p0-| 
|----------------------------------------------------| 
|----------------------------------------------------| 
|----------------------------------------------------| 
|----------------------------------------------------| 
PM    ..    ..    ..     ..     ..     ..      .. 
  


|BRIDGE 1 
|Guitar 1 
|---------------------------------------------| 
|---------------------------------------------| 
|---------------------------------------------| 
|-(4)-----------------------------------------| 
|-(4)-----------------------------------------| 
|-(4)-----------------------------------------| 
|                                                                                                 
|Guitar 2   
|---------------------------------------------| 
|-9p0-009p0-009p0-009p0--005p0-005p0-75357535-| 
|---------------------------------------------| 
|---------------------------------------------| 
|---------------------------------------------| 
|---------------------------------------------| 
PM    ..    ..    ..     ..    ..    ........ 



**************************************************************************************** 



|SOLO 1 
|Guitar 1 6/8 
|----------------------------------------------------| 
|----------------------------------------------------| 
|----------------------------------------------------| 
|----------------------------------------------------| 
|-444444-4-----------------444444-4------------------| 
|-444444-4-----------------444444-4------------------| 
|PM..... .                 ...... . 
|                                                                                                 
|Guitar 2   
|----------------------------------------------------| 
|-7p0-007p0-007p0-007p0--0010p0-0010p0-0010p0-0010p0-| 
|----------------------------------------------------| 
|----------------------------------------------------| 
|----------------------------------------------------| 
|----------------------------------------------------| 
PM    ..    ..    ..     ..     ..     ..      .. 
  



|SOLO 1 
|Guitar 1  6/8 
|--------------------------------------------------------| 
|--------------------------------------------------------| 
|--------------------------------------------------------| 
|--------------------------------------------------------| 
|-444444-4------------------444444--44/7-----------------| 
|-444444-4------------------444444--44/7-----------------| 
|PM..... .                  ......   .. 
|                                                                                             
|Guitar 2   
|--------------------------------------------------------| 
|-9p0-009p0-009p0-009p0--0012p0-0012p0-14121012-14121012-| 
|--------------------------------------------------------| 
|--------------------------------------------------------| 
|--------------------------------------------------------| 
|--------------------------------------------------------| 
PM    ..    ..    ..     ..     ..      ................. 






|SOLO 1 
|Guitar 1   6/8 
|----------------------------------------------------| 
|----------------------------------------------------| 
|----------------------------------------------------| 
|----------------------------------------------------| 
|-444444-4-----------------444444-4------------------| 
|-444444-4-----------------444444-4------------------| 
|PM..... .                 ...... . 
|                                                                                                 
|Guitar 2   
|----------------------------------------------------| 
|-7p0-007p0-007p0-007p0--0010p0-0010p0-0010p0-0010p0-| 
|----------------------------------------------------| 
|----------------------------------------------------| 
|----------------------------------------------------| 
|----------------------------------------------------| 
PM    ..    ..    ..     ..     ..     ..     .. 
  



|SOLO 1 
|Guitar 1   6/8 
|---------------------------------------------| 
|---------------------------------------------| 
|---------------------------------------------| 
|---------------------------------------------| 
|-444444-4-----------------444444-0-0-0-------| 
|-444444-4-----------------444444-0-0-0-------| 
|PM..... .                 ...... . . . 
|                                                                                                
|Guitar 2   
|----------------------------------------7545-| 
|-9p0-009p0-009p0-009p0--005p0-005p0-7535-----| 
|---------------------------------------------| 
|---------------------------------------------| 
|---------------------------------------------| 
|---------------------------------------------| 
PM    ..    ..    ..     ..    ..    .... 




(1:56) 
|SOLO 1 
|Guitar 1  6/8 
|----------------------------------------------------| 
|----------------------------------------------------| 
|----------------------------------------------------| 
|-------------666777--------------------777999-------| 
|----------------------------------------------------| 
|--444444------------------444444--------------------| 
|PM......                  ......              
|                                                                                                 
|Guitar 2   
|----------------------------------------------------| 
|-7p0-007p0-007p0-007p0--0010p0-0010p0-0010p0-0010p0-| 
|----------------------------------------------------| 
|----------------------------------------------------| 
|----------------------------------------------------| 
|----------------------------------------------------| 
PM    ..    ..    ..     ..    ..     ..      .. 
  


|SOLO 1 
|Guitar 1   6/8 
|---------------------------------------------| 
|---------------------------------------------| 
|---------------------------------------------| 
|-----------999-111111-121212-111111-999-666--| 
|---------------------------------------------| 
|-444444--------------------------------------| 
|PM.....          
|                                                                                                
|Guitar 2   
|---------------------------------------------| 
|-9p0-009p0-009p0-009p0--005p0-005p0-75357535-| 
|---------------------------------------------| 
|---------------------------------------------| 
|---------------------------------------------| 
|---------------------------------------------| 
PM    ..    ..    ..     ..    ..    ........ 



|SOLO 1 
|Guitar 1   6/8 
|----------------------------------------------------| 
|----------------------------------------------------| 
|----------------------------------------------------| 
|-------------666777--------------------777999-------| 
|----------------------------------------------------| 
|--444444------------------444444--------------------| 
|PM.....                   ......              
|                                                                                                 
|Guitar 2   
|----------------------------------------------------| 
|-7p0-007p0-007p0-007p0--0010p0-0010p0-0010p0-0010p0-| 
|----------------------------------------------------| 
|----------------------------------------------------| 
|----------------------------------------------------| 
|----------------------------------------------------| 
PM    ..    ..    ..     ..    ..     ..      .. 
  


|SOLO 1 
|Guitar 1   6/8 
|------------------------------------------------------------| 
|------------------------------------------------------------| 
|------------------------------------------------------------| 
|---------------999--111111--777--999--666--7*---------------| 
|------------------------------------------------------------| 
|--444444----------------------------------------------------| 
|PM.....          
|                                                                                                
|Guitar 2   
|------------------------------------------------------------| 
|-12p0-0012p0-0012p0-0012p0--0014p0-0014p0-14121012-14121012-| 
|------------------------------------------------------------| 
|------------------------------------------------------------| 
|------------------------------------------------------------| 
|------------------------------------------------------------| 
PM     ..     ..     ..      ..     ..     .................. 



(2:08) 
|SOLO 1 
|Guitar 1   6/8 
|---------------------------------------------------------| 
|---------------------------------------------------------| 
|---------------------------------------------------------| 
|----------------6-6-6-7-7-7-----------------7-7-7-9-9-9--| 
|---------------------------------------------------------| 
|--4-4-4-4-4-4------------------4-4-4-4-4-4---------------| 
|PM...........                  ...........              
|                                                                                                 
|Guitar 2   
|-141414-141414-161616-171717-141414-141414-171717-161616-| 
|---------------------------------------------------------| 
|---------------------------------------------------------| 
|---------------------------------------------------------| 
|---------------------------------------------------------| 
|---------------------------------------------------------| 

  


|SOLO 1 
|Guitar 1   6/8 
|---------------------------------------------------------| 
|---------------------------------------------------------| 
|---------------------------------------------------------| 
|----------------9-9-9-111111-121212-111111--9-9-9--6-6-6-| 
|---------------------------------------------------------| 
|--4-4-4-4-4-4--------------------------------------------| 
|PM...........             
|                                                                                                 
|Guitar 2   
|-141414-141414-161616-171717-191919-191919-171717-161616-| 
|---------------------------------------------------------| 
|---------------------------------------------------------| 
|---------------------------------------------------------| 
|---------------------------------------------------------| 
|---------------------------------------------------------| 






|SOLO 1 
|Guitar 1   6/8 
|---------------------------------------------------------| 
|---------------------------------------------------------| 
|---------------------------------------------------------| 
|----------------6-6-6--7-7-7----------------7-7-7--9-9-9-| 
|---------------------------------------------------------| 
|--4-4-4--4-4-4------------------4-4-4-4-4-4--------------| 
|PM............                  ...........              
|                                                                                                 
|Guitar 2   
|-141414-141414-161616-171717-141414-141414-171717-161616-| 
|---------------------------------------------------------| 
|---------------------------------------------------------| 
|---------------------------------------------------------| 
|---------------------------------------------------------| 
|---------------------------------------------------------| 

  


|SOLO 1 
|Guitar 1   6/8 
|---------------------------------------------------------| 
|---------------------------------------------------------| 
|---------------------------------------------------------| 
|----------------9-9-9-111111--7-7-7--9-9-9--6-6-6--7*----| 
|---------------------------------------------------------| 
|--4-4-4--4-4-4-------------------------------------------| 
|PM.....                 
|                                                                                                 
|Guitar 2   
|-141414-141414-161616-171717-----PAUSE-------------------| 
|---------------------------------------------------------| 
|---------------------------------------------------------| 
|---------------------------------------------------7*----| 
|---------------------------------------------------------| 
|---------------------------------------------------------| 




  
**************************************************************************************** 


(2:22)  
|BREAKDOWN 1 
|Guitar 1 & 2   6/8 
|----------------------------------------------------| 
|----------------------------------------------------| 
|----------------------------------------------------| 
|----------------------------------------------------| 
|-444444-4-----------------444444-4------------------| 
|-444444-4-----------------444444-4------------------| 
|PM..... .                 ...... . 




|Guitar 1 & 2   6/8 
|----------------------------------------------------| 
|----------------------------------------------------| 
|----------------------------------------------------| 
|----------------------------------------------------| 
|-444444-4-----------------444444-4/7----------------| 
|-444444-4-----------------444444-4/7----------------| 
|PM..... .                 ......  




**************************************************************************************** 




|BRIDGE 2 
|Guitar 1   6/8 
|-----------------------------------------------------| 
|-----------------------------------------------------| 
|-----------------------------------------------------| 
|-0----------------------------2----------------------| 
|-0----------------------------2----------------------| 
|-0----------------------------2----------------------| 
|Let ring out 





**************************************************************************************** 



(2:34) 
|Chorus 3 
|Guitar 1   6/8 
|--------------------------------|-------------------------------------------------------------| 
|--------------------------------|-------------------------------------------------------------| 
|--------------------------------|-------------------------------------------------------------| 
|--------------------------------|-------------------------------------------------------------|   
|--444-444-4-----------777-777-7-|--000---000-0----------2-2-2-2-2-2-----2---------------------| 
|--444-444-4-----------777-777-7-|--000---000-0----------2-2-2-2-2-2-----2---------------------| 
|                                                                                                  
|Guitar 2   
|--------------------------------|-------------------------------------------------------------| 
|--------------------------------|--------------------14p12-----14p12-----16p14-----16p14------| 
|-111111-111111-11-----999-999-9-|-141414-141414-14--------14p12-----14p12-----16p14-----16p14-| 
|--------------------------------|-------------------------------------------------------------| 
|--9-9-9--9-9-9--9-----777-777-7-|-121212-121212-12--------------------------------------------| 
|--------------------------------|-------------------------------------------------------------| 




|Chorus 3 
|Guitar 1 6/8 
|--------------------------------|-------------------------------------------------------------| 
|--------------------------------|-------------------------------------------------------------| 
|--------------------------------|-------------------------------------------------------------| 
|--------------------------------|-------------------------------------------------------------|   
|--444-444-4-----------777-777-7-|--000---000-0----------2-2-2-2-2-2-----2---------------------| 
|--444-444-4-----------777-777-7-|--000---000-0----------2-2-2-2-2-2-----2---------------------| 
|                                                                                                  
|Guitar 2   
|--------------------------------|-------------------------------------------------------------| 
|--------------------------------|--------------------14p12-----14p12-----16p14-----16p14------| 
|-111111-111111-11-----999-999-9-|-141414-141414-14--------14p12-----14p12-----16p14-----16p14-| 
|--------------------------------|-------------------------------------------------------------| 
|--9-9-9--9-9-9--9-----777-777-7-|-121212-121212-12--------------------------------------------| 
|--------------------------------|-------------------------------------------------------------| 



  
**************************************************************************************** 



(2:47) 
|Chorus 3 Continued 
|Guitar 1 6/8 
|----------------------------------------------------| 
|----------------------------------------------------| 
|----------------------------------------------------| 
|----------------------------------------------------|    
|-4-4-4-4-4-4--4-4-4-4-4-4--7-7-7-7-7-7--7-7-7-7-7-7-| 
|-4-4-4-4-4-4--4-4-4-4-4-4--7-7-7-7-7-7--7-7-7-7-7-7-| 
|                                                                                                  
|Guitar 2   
|----------------------------------------------------| 
|-7p0-007p0-007p0-007p0--0010p0-0010p0-0010p0-0010p0-| 
|----------------------------------------------------| 
|----------------------------------------------------| 
|----------------------------------------------------| 
|----------------------------------------------------| 
PM    ..    ..    ..     ..    ..     ..      .. 




|Chorus 3 
|Guitar 1 6/8 
|-----------------------------------------------------| 
|-----------------------------------------------------| 
|-----------------------------------------------------| 
|-----------------------------------------------------| 
|-0-0-0-0-0-0--0-0-0-0-0-0---2-2-2-2-2-2--2-2-2-2-2-2-| 
|-0-0-0-0-0-0--0-0-0-0-0-0---2-2-2-2-2-2--2-2-2-2-2-2-| 
|  
|Guitar 2   
|-----------------------------------------------------| 
|-9p0-009p0-009p0-009p0--005p0-005p0--7-5-3-5-7-5-3-5-| 
|-----------------------------------------------------| 
|-----------------------------------------------------| 
|-----------------------------------------------------| 
|-----------------------------------------------------| 
PM    ..    ..    ..     ..    ..    ................. 




|Chorus 3 
|Guitar 1 6/8 
|----------------------------------------------------| 
|----------------------------------------------------| 
|----------------------------------------------------| 
|----------------------------------------------------|    
|-4-4-4-4-4-4--4-4-4-4-4-4--7-7-7-7-7-7--7-7-7-7-7-7-| 
|-4-4-4-4-4-4--4-4-4-4-4-4--7-7-7-7-7-7--7-7-7-7-7-7-| 
|                                                                                                  
|Guitar 2   
|----------------------------------------------------| 
|-7p0-007p0-007p0-007p0--0010p0-0010p0-0010p0-0010p0-| 
|----------------------------------------------------| 
|----------------------------------------------------| 
|----------------------------------------------------| 
|----------------------------------------------------| 
PM    ..    ..    ..     ..    ..     ..      .. 




|Chorus 3 
|Guitar 1 6/8 
|-----------------------------------------------------| 
|-----------------------------------------------------| 
|--------------------------------PAUSE----------------| 
|-----------------------------------------------------| 
|-0-0-0-0-0-0--0-0-0-0-0-0----------------------------| 
|-0-0-0-0-0-0--0-0-0-0-0-0----------------------------| 
|  
|Guitar 2   
|-----------------------------------------------------| 
|-12p0-0012p0-0012p0-0012p0---------------------------| 
|--------------------------------PAUSE----------------| 
|-----------------------------------------------------| 
|-----------------------------------------------------| 
|-----------------------------------------------------| 
PM     ..     ..     ..       




**************************************************************************************** 



(3:00)  
|BREAKDOWN 2 
|Guitar 1 & 2    6/8 
|----------------------------------------------------| 
|----------------------------------------------------| 
|----------------------------------------------------| 
|----------------------------------------------------| 
|-000000-0-----------------000000-0------------------| 
|-000000-0-----------------000000-0------------------| 
|PM..... .                 ...... . 





|Guitar 1 & 2    6/8 
|----------------------------------------------------| 
|----------------------------------------------------| 
|----------------------------------------------------| 
|----------------------------------------------------| 
|-000000-0-----------------0--0--0--2--2--2----------| 
|-000000-0-----------------0--0--0--2--2--2----------| 
|PM..... .                 .  .  .  .  .  .  




**************************************************************************************** 




(3:07) 
|SOLO 2 
|Guitar 1  6/8 
|---------------------------------------------------------| 
|---------------------------------------------------------| 
|---------------------------------------------------------| 
|----------------6-6-6-7-7-7------------------7-7-7-9-9-9-| 
|---------------------------------------------------------| 
|--4-4-4-4-4-4------------------4-4-4-4-4-4---------------| 
|PM...........                  ...........              
|                                                                                                 
|Guitar 2   
|-141414-141414-161616-171717-141414-141414-171717-161616-| 
|---------------------------------------------------------| 
|---------------------------------------------------------| 
|---------------------------------------------------------| 
|---------------------------------------------------------| 
|---------------------------------------------------------| 

  


|SOLO 1 
|Guitar 1  6/8 
|---------------------------------------------------------| 
|---------------------------------------------------------| 
|---------------------------------------------------------| 
|----------------9-9-9-111111-121212-111111--9-9-9--6-6-6-| 
|---------------------------------------------------------| 
|--4-4-4-4-4-4--------------------------------------------| 
|PM...........             
|                                                                                                 
|Guitar 2   
|-141414-141414-161616-171717-191919-191919-171717-161616-| 
|---------------------------------------------------------| 
|---------------------------------------------------------| 
|---------------------------------------------------------| 
|---------------------------------------------------------| 
|---------------------------------------------------------| 






|SOLO 1 
|Guitar 1   6/8 
|---------------------------------------------------------| 
|---------------------------------------------------------| 
|---------------------------------------------------------| 
|----------------6-6-6--7-7-7----------------7-7-7--9-9-9-| 
|---------------------------------------------------------| 
|--4-4-4-4-4-4------------------4-4-4-4-4-4---------------| 
|PM...........                  ...........              
|                                                                                                 
|Guitar 2   
|-141414-141414-161616-171717-141414-141414-171717-161616-| 
|---------------------------------------------------------| 
|---------------------------------------------------------| 
|---------------------------------------------------------| 
|---------------------------------------------------------| 
|---------------------------------------------------------| 

  


|SOLO 1 
|Guitar 1   6/8 
|---------------------------------------------------------| 
|---------------------------------------------------------| 
|---------------------------------------------------------| 
|----------------9-9-9-111111--7-7-7--9-9-9--6-6-6--7*----| 
|---------------------------------------------------------| 
|--4-4-4-4-4-4--------------------------------------------| 
|PM...........                 
|                                                                                                 
|Guitar 2   
|-141414-141414-161616-171717-191919-191919-21v-----------| 
|---------------------------------------------------------| 
|---------------------------------------------------------| 
|---------------------------------------------------------| 
|---------------------------------------------------------| 
|---------------------------------------------------------| 




  
**************************************************************************************** 



(3:20)  
|OUTRO 
|Guitar 1 & 2    6/8 
|----------------------------------------------------| 
|----------------------------------------------------| 
|----------------------------------------------------| 
|----------------------------------------------------| 
|-444444-4-----------------444444-0-0-0--------------| 
|-444444-4-----------------444444-0-0-0--------------| 
|PM..... .                 ...... . 
| 
| 
| 
| 
| 
| 
| 
| 
|END 
		  

auto scroll beats size up size down change color hide chords drawings
tab show chords e-chords YouTube Clip e-chords hide all tabs e-chords go to top tab

share