Los Lobos

home > Los Lobos

La Bamba (TAB) Tab

Los Lobos

Difficulty: ExpertExpert

by gruol

tuner correct add songbook print version text version save to e-mail
chordsukulelecavacokeyboardtabbassdrumsharmonicsflute Guitar Pro
chords

La Bamba (TAB)

	  esta es la bamba con la parte de la mitad espero 
que la sepan tocar  no se bien si es en esa parte dodne entra  
el solo pero si no es ahi usredes la ubicam en su  
lugar cifras.com.br 
INTRO: 
 
e|-----------------------------------------------|  
B|-----------------------------------------------|  
G|---------------2-0------------------------2-0--|  
D|---------2---3---------0-3-3-2-0----2---3------|  
A|-----2-3---3---------2-----------3----3--------|  
E|-3-5---------------3---------------------------|  
  
[email protected]  
  
 *-*-*-*-*-*-*-*-*-*-*-*-*-*-*-*-*-*-*-*-*-*-*-*-*-*  
*-*-*-*-*-*-*-*-*-*-*-*-*-*-*-*-*-*-*-*-*-*-*-*-*-*-*-*  
  
              C    F G   
Para bailar la Bamba   
               C        F    G                C    F G   
Para bailar la Bamba se necesita una poca de gracia   
             C        F     G                   C   F G   
una poca de gracia y otra cosita ay arriba y arriba   
               C       F     G   F     C       F      G                    
ay arriba y arriba por ti sere  por ti sere por ti sere   
             C   F G   
yo no soy marinero   
               C        F    G          C       F   G   
yo no soy marinero soy capitan soy capitan soy capitan   
  
  
  
C   F     G   
Bamba la Bamba   
C   F     G   
Bamba la Bamba   
C   F     G   
Bamba la Bamba   
C   F     G   
Bamba la Bamba   
  
solo: 
------------------|-------------------|-------------------------| 
------------------|-------------------|-------------------------| 
------------------|----------------0--|---0--2---2-0------------| 
------------------|-------------------|--------------3---2---3--| 
------------------|-------------------|-------------------------| 
------------------|-------------------|-------------------------| 
 
 
---------------------------|--------------------------|------------------------- 
---------------------------|--------------------------|-----------------------1- 
--0--2--2-0----------------|--------------------------|----------------0--0-2--- 
------------3--2--0--2--0--|--2--0------0-------------|----------0--3----------- 
---------------------------|----------3---3--0--------|-------2----------------- 
---------------------------|--------------------3--3--|----3-------------------- 
 
 
----------------------------|-------------------------|------------------------| 
--0--1-----1--0--1--1-3-1-0-|--1-----0----------------|------------------------| 
--------0-------------------|-----0-----0--0---0---0--|--0---0-----------------| 
----------------------------|-------------------------|----------3--2---0------| 
----------------------------|-------------------------|---------------------3--| 
----------------------------|-------------------------|------------------------| 
 
 
--------------------|--0---0---0--0--------------|-----------------------------| 
--------------------|---------------3-3-3-3--1-1-|--1--0-0-0-------------------| 
--------------0--0--|----------------------------|------------2-2-2--0-0-0-----| 
--------------------|----------------------------|--------------------------3-3| 
 -------2-----------|----------------------------|-----------------------------| 
3--3-------3--------|----------------------------|-----------------------------| 
 
 
--------------------------|-----------------0--0--0--| 
--------------------------|--------------------------| 
---------------0---2---0--|--0--0--0--0--0-----------| 
--3--2-2-2--3-------------|--------------------------| 
--------------------------|--------------------------| 
--------------------------|--------------------------| 
 
 
--0h1h0---0h1h0---0h1h0---0h1h0---|--0h1h0---0h1h0---0h1h0---0h1h0---| 
--------3-------3-------3-------3-|--------3-------3-------3-------3-| 
----------------------------------|----------------------------------| 
----------------------------------|----------------------------------| 
----------------------------------|----------------------------------| 
----------------------------------|----------------------------------| 
 
 
 
--0h1h0---0-----------------------|-------------------------------|------------- 
--------3---3h1h3h1---1-----------|-------------------------------|--1---------- 
--------------------2---2h0h2h0---|--0------------------0---0--2--|------------- 
--------------------------------2-|----2-0-2-0---0---2----2-------|------------- 
----------------------------------|------------3---3--------------|------------- 
----------------------------------|-------------------------------|------------- 
espero que les guste chau. 02/02/03 

	  

there isn't a video lesson for this song

request
Full key step upFull key step up
Half key step upHalf key step up
Half key step downHalf key step down
Full key step downFull key step down
Search
auto scroll beats size up size down change color hide chords drawings
tab show chords e-chords YouTube Clip e-chords hide all tabs e-chords go to top tab