Los Hermanos

Anna Julia

Los Hermanos

tabs Beginner beginner

by  FELIPE_SLASH

close

there isn't a video lesson for this song

chords

Anna Julia

(Marcelo Camelo)

	  		
E|-------5-4-2---2-0---------------------5-5-4-2---2-0-------------0-   
B|---0-2-------2---------2-3-2-0-2---------------2---------2-2-2-3---  
G|-2-------------------------------2---------------------------------   
D|-------------------------------------------------------------------   
A|-------------------------------------------------------------------   
E|-------------------------------------------------------------------   
  
  
E|-------5-4-2---2-0---------------------5-5-4-2---2-0---------------   
B|---0-2-------2---------2-3-2-0-2---------------2-----2-3-2-0-------  
G|-2-------------------------------2---------------------------------   
D|-------------------------------------------------------------------   
A|-------------------------------------------------------------------   
E|-------------------------------------------------------------------   
  
E|-4-5-2-----2-4-5-7-5-4-0-----0-0-0-0-0-2-------2-2-2-2-0-2-4...----   
B|-----------------------------------------3-------------------------   
G|-------------------------------------------------------------------   
D|-------------------------------------------------------------------   
A|-------------------------------------------------------------------   
E|-------------------------------------------------------------------   
  
Refrão   
  
E|-0-4-4-5-0------------0-4-4-5-0------------------------------------   
B|-----------3-2-3-2-0------------3-2-3-2-0--------------------------   
G|-------------------------------------------------------------------   
D|-------------------------------------------------------------------   
A|-------------------------------------------------------------------   
E|-------------------------------------------------------------------   
  
                               **  
  
E|-------5-4-2---2-0---------------------5-5-4-2---2-0-------------0-   
B|---0-2-------2---------2-3-2-0-2---------------2---------2-2-2-3---  
G|-2-------------------------------2---------------------------------   
D|-------------------------------------------------------------------   
A|-------------------------------------------------------------------   
E|-------------------------------------------------------------------   
  
  
E|-------5-4-2---2-0---------------------5-5-4-2---2-0---------------   
B|---0-2-------2---------2-3-2-0-2---------------2-----2-3-2-0-------  
G|-2-------------------------------2---------------------------------   
D|-------------------------------------------------------------------   
A|-------------------------------------------------------------------   
E|-------------------------------------------------------------------   
  
E|-4-5-2-----2-4-5-7-5-4-0-----0-0-0-0-0-2-------2-2-2-2-0-2-4...----   
B|-----------------------------------------3-------------------------   
G|-------------------------------------------------------------------   
D|-------------------------------------------------------------------   
A|-------------------------------------------------------------------   
E|-------------------------------------------------------------------   
  
  
Refrão   
  
E|-0-4-4-5-0------------0-4-4-5-0------------------------------------   
B|-----------3-2-3-2-0------------3-2-3-2-0--------------------------   
G|-------------------------------------------------------------------   
D|-------------------------------------------------------------------   
A|-------------------------------------------------------------------   
E|-------------------------------------------------------------------  
  
                               **  
  
E|-5-2-5-4-0-4-2-----0-0-----5-2-5-4-0-4-2-----0-0-------------------   
B|---------------3-3-----------------------3-3-----------------------   
G|-------------------------------------------------------------------  
D|-------------------------------------------------------------------   
A|-------------------------------------------------------------------   
E|-------------------------------------------------------------------  
  
E|-0-5-2-5-4-0-0-2-2-----0-0-----0-5-2-2-5-4-0-0-2-2-----0-0---------   
B|-------------------3-3-----------------------------3-3-------------   
G|-------------------------------------------------------------------  
D|-------------------------------------------------------------------   
A|-------------------------------------------------------------------   
E|------------------------------------------------------------------- 

		  

auto scroll beats size up size down change color hide chords drawings
tab show chords e-chords YouTube Clip e-chords hide all tabs e-chords go to top tab

share