Los Apson

Susi Q

Los Apson

tabs Intermediate intermediate

by  LEANJUNIOR

save to print version add songbook text version e-mail correct tuner
chordsukulelecavacokeyboardtabbassdrumsharmonicaflute Guitar Pro
close

there isn't a video lesson for this song

chords

Susi Q

	  		                      Susie Q                                                                    
                      (Sucy Q)                                                                   
                   -Hawkins-Lewis-                                                               
               Explicado a dos Guitarras                                                         
      Intro.                                                                                     
  e|---7m----------------                                                                        
  b|---7m----------------                                                                        
  g|---7m----------------                                                                        
  d|---7m----------------                                                                        
  a|---7m----------------                                                                        
  E|---7m----------------                                                                        
  Callas todas las cuerdas,la rasgueas tres veces luego la golpeas                               
  Esto dos veces. Hace la vez de los tambores y empezamos.                                       
                                                                                                 
     Primera guitarra.                                                                           
  e|-----------------12---------|---------------12-----------------|                             
  b|----5b-----------12-------9-|--5b-----------12-12-12-12-12-----|                             
  g|-------6-4-------13-7-6h7-9-|-----6-4-------13-13-13-13-13-7s9-|                             
  d|-----------6-4-6------------|---------6-4-6--------------------|                             
  a|----------------------------|----------------------------------|                             
  E|-0--------------------------|----------------------------------|                             
                                                                                                 
  e|---------------12----12-12-|---------------12----12-12-|                                     
  b|--5b-----------12----12-12-|--5b-----------12----12-12-|                                     
  g|-----6-4----------13----13-|-----6-4----------13----13-|                                     
  d|---------6-4-6-------------|---------6-4-6-------------|                                     
  a|---------------------------|---------------------------|                                     
  E|---------------------------|---------------------------|                                     
                    Oh susie Q                  Que sucedio                                      
  e|---------------12-12-12-12----12----12-12----------------|                                   
  b|--5b-----------12-12-12-12----12-15-12-12--7----8------9-|                                   
  g|-----6-4-------13-13-13-13-15-13----13-13--7----8------9-|                                   
  a|---------6-4-6-----------------------------7----8------9-|                                   
  b|-------------------------------------------5----6------7-|                                   
  E|---------------------------------------------------------|                                   
                   que te paso que ya no ries tu mi suisie Q.                                    
                                                                                                 
  e|---------------12-----------------|                                                          
  b|--5b-----------12-12-12-12-12-----|                                                          
  g|-----6-4-------13-13-13-13-13-7s9-|                                                          
  d|---------6-4-6--------------------|                                                          
  a|----------------------------------|                                                          
  E|----------------------------------|                                                          
                                                                                                 
  e|---------------12----12-12-12-|---------------12----12-12-12-|                               
  b|--5b-----------12----12-12-12-|--5b-----------12----12-12-12-|                               
  g|-----6-4----------13----13-13-|-----6-4----------13----13-13-|                               
  d|---------6-4-6----------------|---------6-4-6----------------|                               
  a|------------------------------|------------------------------|                               
  E|------------------------------|------------------------------|                               
                   No se te ve pasar              con ese caminar                                
  e|---------------12-12-12-12----12----12-12----------------------|---------------|             
  b|--5b-----------12-12-12-12----12-15-12-12--------7----8------9-|--5b-----------|             
  g|-----6-4-------13-13-13-13-15-13----13-13--------7----8------9-|-----6-4-------|             
  a|---------6-4-6-----------------------------------7----8------9-|---------6-4-6-|             
  b|-------------------------------------------------5----6------7-|---------------|             
  E|---------------------------------------------------------------|---------------|             
                   no se te ve cantar ne se te ve reir mi suisie Q.                              
                                                                                                 
     Primer solo.                                                                                
  e|--------|--------------------------------|--------------------------------|                  
  b|--------|-12h14v-14v-14v-14v-14v-14v-14v-|-12h14v-14v-14v-14v-14v-14v-14v-|                  
  g|-9s15v--|--------------------------------|--------------------------------|                  
  d|--------|--------------------------------|--------------------------------|                  
  a|--------|--------------------------------|--------------------------------|                  
  E|--------|--------------------------------|--------------------------------|                  
                                                                                                 
                                                                                                 
  e|----------------------|-10h12-10-12-10h12-14b-12-|-10h12-12b----|                            
  b|-14-12----------------|--------------------------|-----------12-|                            
  g|-------14-11-11-14-11-|--------------------------|--------------|                            
  d|----------------------|--------------------------|--------------|                            
  a|----------------------|--------------------------|--------------|                            
  E|----------------------|--------------------------|--------------|                            
                                                                                                 
                                                                                                 
  e|-10h12v-12v-12v-12v-12v-12v-12v-|-10h12-10-12-15b-12-|-15-12----15-12----15-12----15-12----| 
  b|--------------------------------|--------------------|-------15-------15-------15-------15-| 
  g|--------------------------------|--------------------|-------------------------------------| 
  d|--------------------------------|--------------------|-------------------------------------| 
  a|--------------------------------|--------------------|-------------------------------------| 
  E|--------------------------------|--------------------|-------------------------------------| 
                                                                                                 
                                                                                                 
  e|----------------------|------------------|--------------------|------------|                 
  b|-10h12-12-10h12-12-12-|-10h12-12-9s10-10-|-9s10-9-9-----------|------------|                 
  g|----------------------|------------------|----------11s12-9-9-|-11s12-12-9-|                 
  d|----------------------|------------------|--------------------|------------|                 
  a|----------------------|------------------|--------------------|------------|                 
  E|----------------------|------------------|--------------------|------------|                 
                                                                                                 
                                                                                                 
  e|-13s15-13----|---------------|---------|---------|---------|---------|                       
  b|----------15-|-10s12-10----7-|-7-----9-|-7-----9-|-7-----9-|-7-----9-|                       
  g|-------------|----------10---|-7-7s8s9-|-7-7s8s9-|-7-7s8s9-|-7-7s8s9-|                       
  d|-------------|---------------|-7-7s8s9-|-7-7s8s9-|-7-7s8s9-|-7-7s8s9-|                       
  a|-------------|---------------|---------|---------|---------|---------|                       
  E|-------------|---------------|---------|---------|---------|---------|                       
                                                                                                 
                                                                                                 
                                                                                                 
  e|--12----12-12-12-|---------------12----12-12-12-|                                            
  b|--12----12-12-12-|--5b-----------12----12-12-12-|                                            
  g|-----13----12-13-|-----6-4----------13----13-13-|                                            
  d|-----------------|---------6-4-6----------------|                                            
  a|-----------------|------------------------------|                                            
  E|-----------------|------------------------------|                                            
     Dime que puedo hacer            para poderte ver                                            
  e|---------------12-12-12-12--------12----12-12-12---------------------|                       
  b|--5b-----------12-12-12-12--------12-15-12-12-12-------7----8------9-|                       
  g|-----6-4-------13-13-13-13-15-----13----13-13-13-------7----8------9-|                       
  a|---------6-4-6-----------------------------------------7----8------9-|                       
  b|-------------------------------------------------------5----6------7-|                       
  E|---------------------------------------------------------------------|                       
                   para q' pueda ver q' ya no estas tan triste Oh mi suisie Q.                   
                                                                                                 
  e|---------------12-----------------|                                                          
  b|--5b-----------12-12-12-12-12-----|                                                          
  g|-----6-4-------13-13-13-13-13-7s9-|                                                          
  d|---------6-4-6--------------------|                                                          
  a|----------------------------------|                                                          
  E|----------------------------------|                                                          
                                                                                                 
  e|---------------12----12-12-|---------------12----12-12-|                                     
  b|--5b-----------12----12-12-|--5b-----------12----12-12-|                                     
  g|-----6-4----------13----13-|-----6-4----------13----13-|                                     
  d|---------6-4-6-------------|---------6-4-6-------------|                                     
  a|---------------------------|---------------------------|                                     
  E|---------------------------|---------------------------|                                     
                   Oh susie Q.                 Oh susie Q                                        
  e|---------------12-12-12-12----12----12-12---------------|---------------|                    
  b|--5b-----------12-12-12-12----12-15-12-12-7----8------9-|--5b-----------|                    
  g|-----6-4-------13-13-13-13-15-13----13-13-7----8------9-|-----6-4-------|                    
  a|---------6-4-6----------------------------7----8------9-|---------6-4-6-|                    
  b|------------------------------------------5----6------7-|---------------|                    
  E|--------------------------------------------------------|---------------|                    
                   Que te paso que ya no ries tu mi suisie Q.                                    
     Segundo solo y salida.(yo repito el primero)                                                
                                                                                                 
                                                                                                 
           Ritmo de la Segunda guitarra                                                          
     E                     A                     B                     
  e|-0-0-------0-0-------|-0-0-------0-0-------|-2-2-------2-2-------| 
  b|-0-0-------0-0-------|-2-2----0--2-2----0--|-4-4-------4-4-------| 
  g|-1-1----0--1-1----0--|-2-2----0--2-2----0--|-4-4----2--4-4----2--| 
  d|-2-2----0--2-2----0--|-2-2--0----2-2--0----|-4-4----2--4-4----2--| 
  a|-2-2--0----2-2--0----|-0-0-------0-0-------|-2-2--2----2-2--2----| 
  E|---------------------|---------------------|---------------------| 
                                                           
                                                           
                                    En ingles              
           E                               E               
  Oh Susie Q                      Oh Susie Q               
                                                           
  que sucedio                     oh Susie Q               
                                                           
  que te paso                     oh Susie Q               
                 A                        A                
  que ya no ries tu               I love you               
           E                               E               
  mi Susie Q                      my Susie Q.              
                                                           
                                                           
                 E                                    E    
  No se te ve pasar               I love the way you walk  
                                                           
  con ese caminar                 I love the way you talk  
                                                           
  no se te ve cantar              I love the way you walk  
                A                                     A    
  no se te ve reir                I love the way you talk  
           E                               E               
  mi Susie Q                      my Susie Q.              
                                                           
     Entra solo.                    Entra solo.            
                   E                                   E   
  Dime que puedo hacer            Say that you'll be true  
                                                           
  para poderte ver                say that you'll be true  
                                                           
  para que pueda ver              say that you'll be true  
                         A                             A   
  que ya no estas tan triste      and never leave me blue  
              E                            E               
  oh mi Susie Q                   my Susie Q.              
                                                           
                                                           
           E                               E               
  Oh Susie Q                      Oh Susie Q               
                                                           
  Oh Susie Q                      oh susie Q               
                                                           
  que te paso                     oh susie Q               
                 A                               A         
  que ya no ries tu               Honey, I love you        
           E                               E               
  mi Susie Q                      my Susie Q.              
                                                           
    Entra solo.                     Entra solo.            
                                                           
                                                           
  Espero que le saquen probecho, si la tocan a dos guitarras mucho mejor. 
  desidi trabajar en esta cansion porque la verdad no le entendi nada 
  a la version que se encuentra publicada son unos bajeos y Riff que no  
  me dicen nada, Se me adelantaron con mi version para Sr.Apache(Mr. Custer) 
  pero esa cansion si suena como debe ser. 

  Puse la letra de susie Q. en ingles porque tenia pensado poner los solos 
  de la version de los Rollin' Stone pero cambie de idea porque se van 
  a confundir, El segundo solo lo lleno con el primero. 

  Susie Q. No esta tan dificil como dicen lo que tiene es que esta 
  muy rapida y la primer guitarra tiene -Gain- y suena un poco difusa. 

  Si tienen dudas o correcciones no pierdan tiempo en mi email porque no lo uso, 
  mejor hablen a este telefóno 2-50-52-22 en Hermosillo, Son.
		  

Full key step upFull key step up
Half key step upHalf key step up
Half key step downHalf key step down
Full key step downFull key step down
auto scroll beats size up size down change color hide chords drawings
tab show chords e-chords YouTube Clip e-chords hide all tabs e-chords go to top tab

share