Local Natives

You And I

Local Natives

tabs

by  HUGO_RODRIGUES

save to print version add songbook text version e-mail correct tuner
chordsukulelecavacokeyboardtabbassdrumsharmonicaflute Guitar Pro
close

there isn't a video lesson for this song

chords

You And I

	  		----------------------------------------------------------------- 
     YOU & I by Local Natives  
----------------------------------------------------------------- 

Tabbed by: Jasmine Bailey 
Email: [email protected] 

Such a dreamy songg! There are a couple different guitar parts* to it so grab your  
mates and have a jam session c: I am confident that this is how they play it on  
their record, but if you find something wrong or different email me/comment and I  
will fix it! So go forth and conquer this beautiful song (you have great taste hehe). 

*the Chorus is when the two guitars play in unison 

Tuning: Standard 


Intro/Verses 

     Gm6      Fmaj7         A#         Am     A 

e|----3---------0------------6----------5-----5------------------| 
B|----3---------1------------6----------5-----5---------3--------| 
G|----3---------2------------7----------6-----5------------------| 
D|----0---------3------------8----------7-----6------------------| 
A|---------------------------------------------------------------| 
E|---------------------------------------------------------------| 

e|---------------------------------------------------------------| 
B|---5------6/7--------------------------------------------------| 
G|---------------------------------------------------------------| 
D|---------------------------------------------------------------| 
A|---------------------------------------------------------------|     
E|---------------------------------------------------------------|        (x3) 


Chorus 

e|-----12--10--10-12-10-----12-10--10--10-12-10------------12--8-| 
B|--10--------10---------10-----------10-----------------10------| 
G|---------------------------------------------------------------| 
D|---------------------------------------------------------------| 
A|---------------------------------------------------------------| 
E|---------------------------------------------------------------| 

e|---8-12-8------12--8---8-12-8----------------------------------| 
B|-10---------10-------10----------------------------------------| 
G|---------------------------------------------------------------| 
D|---------------------------------------------------------------| 
A|---------------------------------------------------------------| 
E|---------------------------------------------------------------|     (x4) 


| /  slide up 
| \  slide down 
| h  hammer-on 
| p  pull-off 
| ~  vibrato 
| +  harmonic 
| x  Mute note 
		  

Full key step upFull key step up
Half key step upHalf key step up
Half key step downHalf key step down
Full key step downFull key step down
hide glossary

See also:

tabs Red Hot Chili Peppers - Road Trippin' tabs Red Hot Chili Peppers - Under the brigde tabs Audioslave - Be Yourself tabs Audioslave - Like a Stone tabs Sublime - What I Got tabs Red Hot Chili Peppers - Snow hey oh
e-chords

Other versions:

tabs Scorpions - You And I tabs Yes - You And I tabs The Copyrights - You And I tabs Local Natives - You And I tabs Scorpions - You and I ( ver. 2 ) tabs Scorpions - You and I (acoustic intro)
auto scroll beats size up size down change color hide chords drawings
tab show chords e-chords YouTube Clip e-chords hide all tabs e-chords go to top tab

share