Lloyd Cole

Lost Weekend

Lloyd Cole

tabs

by  ADALGOMES

save to print version add songbook text version e-mail correct tuner
chordsukulelecavacokeyboardtabbassdrumsharmonicaflute Guitar Pro
close

there isn't a video lesson for this song

chords

Lost Weekend

	  		

Intro: 
e|--------------------------------| 
B|-----2--0-----0-----0--2-----3--| 
G|--------------------------------|  x 2 
D|-----------2-----4--------0-----| 
A|--0-----------------------------| 
E|--------------------------------| 

The verse uses the bar chords A, E, F#m and D. 
The bridge uses the chords C and D. 

Solo: 
e|--9---7---5---2--------------------------------| 
B|--10--9---7---3---0h2-0---0-----0--------2--3--| 
G|--------------------------------------2-----2--| 
D|-----------------------------2-----4--------0--| 
A|-----------------------------------------------| 
E|-----------------------------------------------| 

e|--9---7---5---2--------------------------------| 
B|--10--9---7---3---0h2-0---2--------------------| 
G|-----------------------------2-----------------| 
D|--------------------------------------2--4--0--| 
A|--------------------------------2--4-----------| 
E|-----------------------------------------------| 


************************************ 

| /   slide up 
| \   slide down 
| h   hammer-on 
| p   pull-off 
| ~   vibrato 
| +   harmonic 
| x   Mute note 
| b   Bend 
| pb  Pre-bend 
| br  Bend release 
| pbr Pre-bend release 
| brb Bend release bend 

************************************ 
		  

Full key step upFull key step up
Half key step upHalf key step up
Half key step downHalf key step down
Full key step downFull key step down
hide glossary

See also:

tabs Oasis - Some Might Say tabs Stone Temple Pilots - Sour Girl tabs Oasis - Up in the sky tabs Jethro Tull - Hymn 43 tabs Oasis - Sunday Morning Call tabs Focus - Hocus Pocus
e-chords

Other versions:

tabs Lloyd Cole - Lost Weekend
auto scroll beats size up size down change color hide chords drawings
tab show chords e-chords YouTube Clip e-chords hide all tabs e-chords go to top tab

share