L.K.J.

Down the road

L.K.J.

tabs

save to print version add songbook text version e-mail correct tuner
chordsukulelecavacokeyboardtabbassdrumsharmonicaflute Guitar Pro
close

there isn't a video lesson for this song

chords

Down the road

	  		Chorus 
|     Dm      Dm      Dm      Dm  |     Am      Am      Am      Am  |
|---------------------------------|---------------------------------|
|---------5-7-5-7---------5-7-5-7-|---------------------------------|
|-5---------------5---------------|-----------7---7-----------7---7-|
|---------------------------------|-5-------5---5---5-------5---5---|


Verse 
|     Gm      Gm      Gm      Gm  |     Dm      Dm      Dm      Dm  |
|---------------------------------|---------------------------------|
|---------------------------------|-----------7---7-----------7---7-|
|-----------5---5-----------5---5-|-5-------5---5---5-------5---5---|
|-3-------3---3---3-------3---3---|---------------------------------|

|     Gm      Gm      Gm      Gm  |     Gm      Gm      Gm      Gm  |
|---------------------------------|---------------------------------|
|---------------------------------|---------------------------------|
|-----------5---5-----------5---5-|-----------5---5-----------5---5-|
|-3-------3---3---3-------3---3---|-3-------3---3---3-------3---3---|

|     Am      Am      Am      Am  |     Am      Am      Am      Am  |
|---------------------------------|---------------------------------|
|---------------------------------|---------------------------------|
|-----------7---7-----------7---7-|-----------7---7-----------7---7-|
|-5-------5---5---5-------5---5---|-5-------5---5---5-------5---5---|
		  

Full key step upFull key step up
Half key step upHalf key step up
Half key step downHalf key step down
Full key step downFull key step down
hide glossary

See also:

tabs UB 40 - Red red wine tabs Horace Andy - Skylarking tabs Culture - The international herb tabs Twinkle Brothers - It dread all over tabs Kana - Nucléaire tabs Toots and the Maytals - Funky Kingston
e-chords

Other versions:

tabs L.K.J. - Down the road tabs C2c - Down The Road Technical Parts
auto scroll beats size up size down change color hide chords drawings
tab show chords e-chords YouTube Clip e-chords hide all tabs e-chords go to top tab

share