Little Chief

Mountain Song

Little Chief

tabs

by  JOV-CORREA

save to print version add songbook text version e-mail correct tuner
chordsukulelecavacokeyboardtabbassdrumsharmonicaflute Guitar Pro
close

there isn't a video lesson for this song

chords

Mountain Song

	  		

e |--------------------------------|--------------------------------| 0:00 
b |--------------------------------|--------------------------------| 
G#|--------------------------------|--------------------------------| 
E |--------------------------------|--------------------------------| 
B |5-----5-5-5-5-----5-5-5-5---5-5-|5-----5-5-5-5-----5-5-5-5---5---| 
E |--------------------------------|--------------------------------| 

e |----------------------------------|----------------------------------|  
b |----------------------------------|----------------------------------| 
G#|----------------------------------|----------------------------------| 
E |--------0---0-------0---0-------0-|--------0---0-------0---0-------0-| 
B |0/2---2-------2---2-------2---2---|2/4---4-------4---4-------4---4---| 
E |----------------------------------|----------------------------------| 

e |----------------------------------|--------------------------------| 0:07 
b |----------------------------------|--------------------------------| 
G#|--------0-------------------------|--------------------------------| 
E |------------0-------0---0-------0-|--0---0---0-------0---0-------0-| 
B |4/5---5-------5---5-------5---5---|5---5-------5---5-------5---5---| 
E |----------------------------------|--------------------------------| 

e |----------------------------------|----------------------------------| 
b |----------------------------------|----------------------------------| 
G#|----------------------------------|----------------------------------| 
E |--------0---0-------0---0-------0-|--------0---0-------0---0-------0-| 
B |0/2---2-------2---2-------2---2---|2/4---4-------4---4-------4---4---| 
E |----------------------------------|----------------------------------| 

e |----------------------------------|--------------------------------| 0:17 
b |----------------------------------|--------------------------------| 
G#|--------0-------------------------|--------------------------------| 
E |0-----0-----0-0---0-0---0-0---0-0-|0---0-0---0-0---0-0---0-0---0-0-| 
B |4/5---5-------5---5-------5---5---|5---5-------5---5-------5---5---| 
E |0---------------------------------|--------------------------------| 

e |----------------------------------|----------------------------------| 
b |----------------------------------|----------------------------------| 
G#|----------------------------------|--------0-------------------------| 
E |0-----0-0---0-0---0-0---0-0---0-0-|0-----0-----0-0---0-0---0-0---0-0-| 
B |0/2---2-------2---2-------2---2---|2/4---4-------4---4-------4---4---| 
E |0---------------------------------|----------------------------------| 

e |----------------------------------|--------------------------------| 0:25 
b |----------------------------------|--------------------------------| 
G#|--------0-----------0-------------|------------------0-------------| 
E |0-----0-----0-0---0-----0-0---0-0-|0---0-0---0-0---0-----0-0---0-0-| 
B |4/5---5-------5---5-------5---5---|5-5-5-------5---5-------5---5---| 
E |0---------------------------------|0-------------------------------| 

e |----------------------------------|----------------------------------| 
b |----------------------------------|----------------------------------| 
G#|--------0-----------0-------------|--------0-----------0-------------| 
E |0-----0-----0-0---0-----0-0---0-0-|0-----0-----0-0---0-----0-0---0-0-| 
B |0/2---2-------2---2-------2---2---|2/4---4-------4---4-------4---4---| 
E |0---------------------------------|0---------------------------------| 

e |----------------------------------|--------------------------------| 0:34 
b |----------------------------------|------0-------------------------| 
G#|--------0-----------0-------------|------------------0-------------| 
E |0-----0-----0-0---0-0---0-0---0-0-|0---0-0---0-0---0-0---0-0---0-0-| 
B |4/5---5-------5---5-------5---5---|5---5-------5---5-------5---5---| 
E |--------------0-----------0-------|0-----------0-----------0-------| 

e |----------------------------------|----------------------------------| 
b |--------------------0-------------|--------0-----------0-------------| 
G#|--------0-------------------------|----------------------------------| 
E |0-----0-0---0-0---0-0---0-0---0-0-|0-----0-----0-0---0-0---0-0---0-0-| 
B |0/2---2-------2---2-------2---2---|2/4---4-------4---4-------4---4---| 
E |0-------------0-----------0-------|0-------------0-----------0-------| 

e |----------------------------------|--------------------------------| 0:41 
b |--------0-----------0-------------|------0-----------0-------------| 
G#|----------------------------------|--------------------------------| 
E |0-----0-----0-0---0-----0-0---0-0-|0---0-----0-0---0-----0-0---0-0-| 
B |4/5---5-------5---5-------5---5---|5---5-------5---5-------5---5---| 
E |0-------------0-----------0-------|0-----------0-----------0-------| 

e |----------------------------------|----------------------------------| 
b |--------0-----------0-------------|--------0-----------0-------------| 
G#|----------------------------------|----------------------------------| 
E |0-----0-----0-0---0-----0-0---0-0-|0-----0-----0-0---0-----0-0---0-0-| 
B |0/2---2-------2---2-------2---2---|2/4---4-------4---4-------4---4---| 
E |0-------------0-----------0-------|0-------------0-----------0-------| 
  
e |--------0-----------0-------------|------0-----------0---0-------0-| 0:51 
b |--------0-----------0-------------|------0-----------0---0-------0-| 
G#|0-----0-0---0-0---0-0---0-0---0-0-|0---0-0---0-0---0-0---0-0---0-0-| 
E |0-----0-------0---0-------0---0---|0---0-------0---0-------0---0---| 
B |4/5---5-------5---5-------5---5---|5---5-------5---5-------5---5---| 
E |0-------------0---0-------0---0---|0---0-------0---0-------0---0---| 

e |--------0-------------------------|--------0-------------------------| 
b |--------0---0-------0-------------|--------0-----------0-------------| 
G#|--------0---0-----------0-------0-|------------0-----------0-------0-| 
E |0-----0-------0---0-------0---0-0-|0-------------0-0---------0---0-0-| 
B |0/2---2-------2---2-------2---2---|2/4---4-------4---4-------4---4---| 
E |0-----0-------0---0-------0---0---|0-----0-------0-----------0-------| 

e |--------0---0-------0---0-------0-|------0---0-------0---0-------0-| 0:58 
b |--------0---0-------0---0-------0-|------0---0-------0---0-------0-| 
G#|0-----0-0---0-0---0-0---0-0---0-0-|0---0-0---0-----0-0---0-0---0-0-| 
E |0-----0-------0---0-------0---0---|0---0-------0---0-------0---0---| 
B |4/5---5-------5---5-------5---5---|5---5-------5---5-------5---5---| 
E |0-----0-------0---0-------0---0---|0---0-------0---0-------0---0---| 

e |--------0---0-------0---0-------0-|--------0---0-------0---0-------0-| 
b |--------0---0-------0---0-------0-|--------0---0-------0---0-------0-| 
G#|0-----0-0---0-0---0-0---0-0---0-0-|0-----0-0---0-0---0-0---0-0---0-0-| 
E |0-----0-------0---0-------0---0---|0-----0-------0---0-------0---0---| 
B |0/2---2-------2---2-------2---2---|2/4---4-------4---4-------4---4---| 
E |0-----0-------0---0-------0---0---|0-----0-------0---0-------0---0---| 

(No more slides) 
e |------0---0-------0---0-------0-|------0---0-------0---0-------0-| 1:06 
b |0---0-0---0-0---0-0---0-0---0-0-|0---0-0---0-0---0-0---0-0---0-0-| 
G#|0---0-0---0-0---0-0---0-0---0-0-|0---0-0---0-0---0-0---0-0---0-0-| 
E |0---0-------0---0-------0---0---|0---0-------0---0-------0---0---| 
B |5---5-------5---5-------5---5---|5---5-------5---5-------5---5---| 
E |0---0-------0---0-------0---0---|0---0-------0---0-------0---0---| 

e |------0---0-------0---0-------0-|------0---0-------0---0-------0-|  
b |0---0-0---0-0---0-0---0-0---0-0-|0---0-0---0-0---0-0---0-0---0-0-| 
G#|0---0-0---0-0---0-0---0-0---0-0-|0---0-0---0-0---0-0---0-0---0-0-| 
E |0---0-------0---0-------0---0---|0---0-------0---0-------0---0---| 
B |2---2-------2---2-------2---2---|4---4-------4---4-------4---4---| 
E |0---0-------0---0-------0---0---|0---0-------0---0-------0---0---| 

e |------0---0-------0---0-------0-|------0---0-------0---0-------0-| 1:14 
b |0---0-0---0-0---0-0---0-0---0-0-|0---0-0---0-0---0-0---0-0---0-0-| 
G#|0---0-0---0-0---0-0---0-0---0-0-|0---0-0---0-0---0-0---0-0---0-0-| 
E |0---0-0---0-0---0-0---0-0---0-0-|0---0-0---0-0---0-0---0-0---0-0-| 
B |5---5-------5---5-------5---5---|5---5-------5---5-------5---5---| 
E |0---0-------0---0-------0---0---|0---0-------0---0-------0---0---| 

e |------0---0-------0---0-------0-|------0---0-------0---0-------0-| 
b |0---0-0---0-0---0-0---0-0---0-0-|0---0-0---0-0---0-0---0-0---0-0-| 
G#|0---0-0---0-0---0-0---0-0---0-0-|0---0-0---0-0---0-0---0-0---0-0-| 
E |0---0-0---0-0---0-0---0-0---0-0-|0---0-0---0-0---0-0---0-0---0-0-| 
B |2---2-------2---2-------2---2---|4---4-------4---4-------4---4---| 
E |0---0-------0---0-------0---0---|0---0-------0---0-------0---0---| 

e |------0---0-------0---0-------0-|------0---0-------0---0-------0-| 1:23 
b |0---0-0---0-0---0-0---0-0---0-0-|0---0-0---0-0---0-0---0-0---0-0-| 
G#|0---0-0---0-0---0-0---0-0---0-0-|0---0-0---0-0---0-0---0-0---0-0-| 
E |0---0-0---0-0---0-0---0-0---0-0-|0---0-0---0-0---0-0---0-0---0-0-| 
B |5---5-------5---5-------5---5---|5---5-------5---5-------5---5---| 
E |0---0-------0---0-------0---0---|0---0-------0---0-------0---0---| 

e |------0---0-------0---0-------0-|------0---0-------0---0-------0-| 
b |0---0-0---0-0---0-0---0-0---0-0-|0---0-0---0-0---0-0---0-0---0-0-| 
G#|0---0-0---0-0---0-0---0-0---0-0-|0---0-0---0-0---0-0---0-0---0-0-| 
E |0---0-0---0-0---0-0---0-0---0-0-|0---0-0---0-0---0-0---0-0---0-0-| 
B |2---2-------2---2-------2---2---|4---4-------4---4-------4---4---| 
E |0---0-------0---0-------0---0---|0---0-------0---0-------0---0---| 

e |------0---0-------0---0-------0-|------0---0-------0---0-------0-| 1:31 
b |0---0-0---0-0---0-0---0-0---0-0-|0---0-0---0-0---0-0---0-0---0-0-| 
G#|0---0-0---0-0---0-0---0-0---0-0-|0---0-0---0-0---0-0---0-0---0-0-| 
E |0---0-0---0-0---0-0---0-0---0-0-|0---0-0---0-0---0-0---0-0---0-0-| 
B |5---5-------5---5-------5---5---|5---5-------5---5-------5---5---| 
E |0---0-------0---0-------0---0---|0---0-------0---0-------0---0---| 

e |------0---0-------0---0-------0-|------0---0-------0---0-------0-| 
b |0---0-0---0-0---0-0---0-0---0-0-|0---0-0---0-0---0-0---0-0---0-0-| 
G#|0---0-0---0-0---0-0---0-0---0-0-|0---0-0---0-0---0-0---0-0---0-0-| 
E |0---0-0---0-0---0-0---0-0---0-0-|0---0-0---0-0---0-0---0-0---0-0-| 
B |2---2-------2---2-------2---2---|4---4-------4---4-------4---4---| 
E |0---0-------0---0-------0---0---|0---0-------0---0-------0---0---| 

(Full on chords now) 
e |------0---0-------0---0---------|------0---0-------0---0---------| 1:40  | 
b |0---0-0---0-0---0-0---0-0---0-0-|0---0-0---0-0---0-0---0-0---0-0-|       | 
G#|0---0-0---0-0---0-0---0-0---0-0-|0---0-0---0-0---0-0---0-0---0-0-|       | 
E |0---0-0---0-0---0-0---0-0---0-0-|0---0-0---0-0---0-0---0-0---0-0-|       | 
B |5---5-5---5-5---5-5---5-5---5-5-|5---5-5---5-5---5-5---5-5---5-5-|       | 
E |0---0-0---0-0---0-0---0-0---0-0-|0---0-0---0-0---0-0---0-0---0-0-|       | 
                                                                            |x4 
e |------0---0-------0---0---------|------0---0-------0---0---------|       | 
b |0---0-0---0-0---0-0---0-0---0-0-|0---0-0---0-0---0-0---0-0---0-0-|       | 
G#|0---0-0---0-0---0-0---0-0---0-0-|0---0-0---0-0---0-0---0-0---0-0-|       | 
E |0---0-0---0-0---0-0---0-0---0-0-|0---0-0---0-0---0-0---0-0---0-0-|       | 
B |2---2-2---2-2---2-2---2-2---2-2-|4---4-4---4-4---4-4---4-4---4-4-|       | 
E |0---0-0---0-0---0-0---0-0---0-0-|0---0-0---0-0---0-0---0-0---0-0-|       | 


Verse 
e |--------0---0-------0---0-------0-|------0---0-------0---0-------0-| 2:12  | 
b |--------0---0-------0---0-------0-|------0---0-------0---0-------0-|       | 
G#|0-----0-0---0-0---0-0---0-0---0-0-|0---0-0---0-----0-0---0-0---0-0-|       | 
E |0-----0-------0---0-------0---0---|0---0-------0---0-------0---0---|       | 
B |4/5---5-------5---5-------5---5---|5---5-------5---5-------5---5---|       | 
E |0-----0-------0---0-------0---0---|0---0-------0---0-------0---0---|       | 
                                                                              |x6 
e |--------0---0-------0---0---------|--------0---0-------0---0-------0-|     | 
b |--------0---0-------0---0-------0-|--------0---0-------0---0-------0-|     | 
G#|0-----0-0---0-0---0-0---0-0---0-0-|0-----0-0---0-0---0-0---0-0---0-0-|     | 
E |0-----0-------0---0-------0---0---|0-----0-------0---0-------0---0---|     | 
B |0/2---2-------2---2-------2---2---|2/4---4-------4---4-------4---4---|     | 
E |0-----0-------0---0-------0---0---|0-----0-------0---0-------0---0---|     | 


Chorus 
General Pattern: E 
                 |----| 

e |------0---0---0-------0---0---0-|------0---0---0-------0---0---0-| 3:02 
b |0---0-0---0-0-0-0---0-0---0-0-0-|0---0-0---0-0-0-0---0-0---0-0-0-| 
G#|0---0-0---0-0-0-0---0-0---0-0-0-|0---0-0---0-0-0-0---0-0---0-0-0-| 
E |0---0-0---0-0-0-0---0-0---0-0-0-|0---0-0---0-0-0-0---0-0---0-0-0-|    x6 
B |5---5-5---5-5-5-5---5-5---5-5-5-|5---5-5---5-5-5-5---5-5---5-5-5-| 
E |0---0-0---0-0-0-0---0-0---0-0-0-|0---0-0---0-0-0-0---0-0---0-0-0-| 

Post-Chorus 
e |--------------------------------| 3:27 
b |--------------------------------| 
G#|--------------------------------| 
E |--------------------------------| 
B |10------9-------7-------5-------| 
E |9-------7-------5-------4-------| 

Chorus} 
e |------0---0---0-------0---0---0-|------0---0---0-------0---0---0-| 
b |0---0-0---0-0-0-0---0-0---0-0-0-|0---0-0---0-0-0-0---0-0---0-0-0-| 
G#|0---0-0---0-0-0-0---0-0---0-0-0-|0---0-0---0-0-0-0---0-0---0-0-0-| 
E |0---0-0---0-0-0-0---0-0---0-0-0-|0---0-0---0-0-0-0---0-0---0-0-0-|    x7 
B |5---5-5---5-5-5-5---5-5---5-5-5-|5---5-5---5-5-5-5---5-5---5-5-5-| 
E |0---0-0---0-0-0-0---0-0---0-0-0-|0---0-0---0-0-0-0---0-0---0-0-0-| 

{Post-Chorus 
e |--------------------------------| 
b |--------------------------------| 
G#|--------------------------------| 
E |--------------------------------| 
B |10------9-------7-------5-------| 
E |9-------7-------5-------4-------| 

Chorus 
e |------0---0---0-------0---0---0-|------0---0---0-------0---0---0-| 
b |0---0-0---0-0-0-0---0-0---0-0-0-|0---0-0---0-0-0-0---0-0---0-0-0-| 
G#|0---0-0---0-0-0-0---0-0---0-0-0-|0---0-0---0-0-0-0---0-0---0-0-0-| 
E |0---0-0---0-0-0-0---0-0---0-0-0-|0---0-0---0-0-0-0---0-0---0-0-0-|    x11 
B |5---5-5---5-5-5-5---5-5---5-5-5-|5---5-5---5-5-5-5---5-5---5-5-5-| 
E |0---0-0---0-0-0-0---0-0---0-0-0-|0---0-0---0-0-0-0---0-0---0-0-0-| 

Post-Chorus 
e |--------------------------------| 
b |--------------------------------| 
G#|--------------------------------| 
E |--------------------------------| 
B |10------9-------7-------5-------| 
E |9-------7-------5-------4-------| 

End On 
   E 
e |0| 
b |0| 
G#|0| 
E |0| 
B |5| 
E |0| 
		  

See also:

tabs Deep Purple - Smoke On The Water (Intermediate Intro) tabs Deep Purple - Space Truckin tabs Deep Purple - Smoke On The Water (Easy Intro) tabs Ira! - Prisão das Ruas tabs Doa - Sexyest Girl tabs Deep Purple - Ted The Mechanic
e-chords

Other versions:

tabs Janes Addiction - Mountain Song tabs Joe Satriani - Mountain Song tabs Little Chief - Mountain Song tabs Janes Addiction - Mountain Song (ver. 2)
auto scroll beats size up size down change color hide chords drawings
tab show chords e-chords YouTube Clip e-chords hide all tabs e-chords go to top tab

share