Lisa

Oath Sign

Lisa

tabs Expert expert

by  PAULLET3

save to print version add songbook text version e-mail correct tuner
chordsukulelecavacokeyboardtabbassdrumsharmonicaflute Guitar Pro
close

there isn't a video lesson for this song

chords

Oath Sign

	  		
Verse:
1 
e|--3-2----3-2----3-2-3--------| 
B|-3---3-3~---3-3~-----3-0-1-3-| 
G|-----------------------------| 
D|-----------------------------| 
A|-----------------------------| 
E|-----------------------------| 

2 
e|--3-2----3-2-3-5----------------| 
B|-3---3-3~---------3-3-1-0-1-5-5-| 
G|--------------------------------| 
D|--------------------------------| 
A|--------------------------------| 
E|--------------------------------| 

repeat verse 1 

3 
e|--3-2----3-2-3-5--------8-7-3-5~-| 
B|-3---3-3~--------3-3-1-0---------| 
G|---------------------------------| 
D|---------------------------------| 
A|---------------------------------| 
E|---------------------------------| 

Pre-Chorus: 
1 
e|-2-3--0-2-3-0-2-3----2-3--0-2-3-3-5-3-| 
B|--------------------------------------| 
G|--------------------------------------| 
D|--------------------------------------| 
A|--------------------------------------| 
E|--------------------------------------| 

2 
e|-0-0-7-0--2-3-5-----10-8-7-3-5---3-7~-| 
B|---------------2---2------------------| 
G|--------------------------------------| 
D|--------------------------------------| 
A|--------------------------------------| 
E|--------------------------------------| 

Chorus: 
1 
e|-045-4-5-7-9---0-5-4-5-7-9---9-7-7-5-4-0---10-9-7-| 
B|--------------------------------------------------| 
G|--------------------------------------------------| 
D|--------------------------------------------------| 
A|--------------------------------------------------| 
E|--------------------------------------------------| 
*045 because it's fast. (0-4-5) 

2 
e|--9-7--5-4-0--0-7-5----9-7-9-7-9-10-7~--| 
B|-7--------------------------------------| 
G|----------------------------------------| 
D|----------------------------------------| 
A|----------------------------------------| 
E|----------------------------------------| 

repeat Chorus 1 

3 
e|--9-7--5-4-0--0-7-5---5-7-9~-| 
B|-7---------------------------| 
G|-----------------------------| 
D|-----------------------------| 
A|-----------------------------| 
E|-----------------------------| 

4 
e|5--4--0-4~--2~-| 
B|---------------| 
G|---------------| 
D|---------------| 
A|---------------| 
E|---------------| 

Post Chorus: 
1 
e|-2-4-5-4-0---9-7-5-7-4--2~-| 
B|---------------------------| 
G|---------------------------| 
D|---------------------------| 
A|---------------------------| 
E|---------------------------| 

repeat whole verse + Pre-Chorus + Chorus. It's up to you to play with the tabs ^^ . Too  
lazy to check them xD 

e|-0-2-0-2-4--2--4--2--5----0-2-0-2-4--2--7--4--2-| 
B|------------------------------------------------| 
G|------------------------------------------------| 
D|------------------------------------------------| 
A|------------------------------------------------| 
E|------------------------------------------------| 

e|-0----4-4-5---4-4-5----9-7--4~-| 
B|--2-0-------2------------------| 
G|-------------------------------| 
D|-------------------------------| 
A|-------------------------------| 
E|-------------------------------| 

Chorus after Interlude: 

e|-045-4-5-7-9---0-5-4-5-7-9---9-7-7-5-4-0---10-9-7-| 
B|--------------------------------------------------| 
G|--------------------------------------------------| 
D|--------------------------------------------------| 
A|--------------------------------------------------| 
E|--------------------------------------------------| 

e|--9-7--5-4-0--0-7-5----9-7-9-7-9-10-7~--| 
B|-7--------------------------------------| 
G|----------------------------------------| 
D|----------------------------------------| 
A|----------------------------------------| 
E|----------------------------------------| 

e|-045-4-5-7-9---0-5-4-5-7-9---9-7-7-5-7--9---10-9-7-| 
B|---------------------------------------------------| 
G|---------------------------------------------------| 
D|---------------------------------------------------| 
A|---------------------------------------------------| 
E|---------------------------------------------------| 

e|--9-7--5-4-0--0-7-5---5-7-9~-| 
B|-7---------------------------| 
G|-----------------------------| 
D|-----------------------------| 
A|-----------------------------| 
E|-----------------------------| 

e|5--4--0-4~--2~-| 
B|---------------| 
G|---------------| 
D|---------------| 
A|---------------| 
E|---------------| 

Post Chorus: 

2 
e|-2-4-5-4-0---9-7-5-7-4-| 
B|-----------------------| 
G|-----------------------| 
D|-----------------------| 
A|-----------------------| 
E|-----------------------| 

3 
e|-2-4-5-4-0---9-7-5-7-12-| 
B|------------------------| 
G|------------------------| 
D|------------------------| 
A|------------------------| 
E|------------------------| 
 
		  

auto scroll beats size up size down change color hide chords drawings
tab show chords e-chords YouTube Clip e-chords hide all tabs e-chords go to top tab

share