Lisa Hannigan

Splishy Splashy

Lisa Hannigan

tabs nolevel nolevel

by  ABELAMIN

save to print version add songbook text version e-mail correct tuner
chordsukulelecavacokeyboardtabbassdrumsharmonicaflute Guitar Pro
close

there isn't a video lesson for this song

chords

Splishy Splashy

	  		Intro 2x: 

 
E|---------0-------0-------0---------------0-------0-------0-------|| 
B|------10------10------10------10------10------10------10------10-|| 
G|.--11------11------11------11------11------11------11------11---.|| 
D|.0-------------------------------0------------------------------.|| 
A|-----------------------------------------------------------------|| 
E|-----------------------------------------------------------------|| 
 

Verso: 

 
E|---------0-------0-------0---------------0-------0-------0-------| 
B|------10------10------10------10------10------10------10------10-| 
G|---11------11------11------11------11------11------11------11----| 
D|-0-------------------------------0-------------------------------| 
A|-----------------------------------------------------------------| 
E|-----------------------------------------------------------------| 
 
Surface slowly 
at your own speed 

 
E|---------0-------0-------0---------------0-------0-------0-------| 
B|------10------10------10------10------10------10------10------10-| 
G|---11------11------11------11------11------11------11------11----| 
D|-0-------------------------------0-------------------------------| 
A|-----------------------------------------------------------------| 
E|-----------------------------------------------------------------| 
 
waiting for some sky. 

 
E|---------0-------0-------0---------------0-------0-------0-------| 
B|------10------10------10------10------10------10------10------10-| 
G|---11------11------11------11------11------11------11------11----| 
D|-0-------------------------------0-------------------------------| 
A|-----------------------------------------------------------------| 
E|-----------------------------------------------------------------| 
 

We're all laughing, 
we're all faking 

 
E|---------0-------0-------0---------------0-------0---------------| 
B|------10------10------10------10------10------10------10------10-| 
G|---11------11------11------11------11------11------11------11----| 
D|-0-------------------------------0-----------------------(b9)----| 
A|-----------------------------------------------------------------| 
E|-----------------------------------------------------------------| 
 
just to see you smile. 

Refrão: 

 
E|---------0-------0-----------------------0-------0---------------| 
B|------10------10------10------10------10------10------10------10-| 
G|---11------11------11------11------11------11------11------11----| 
D|-10----------------------10------(b9)----------------------(b9)--| 
A|-----------------------------------------------------------------| 
E|-----------------------------------------------------------------| 
 
She waits her turn 

 
E|---------0-------0-----------------------0-------0---------------| 
B|------11------11------11------10------10------10------10------10-| 
G|---11------11------11------11------11------11------11------11----| 
D|-8-----------------------10------(b9)----------------------(b9)--| 
A|-----------------------------------------------------------------| 
E|-----------------------------------------------------------------| 
 
she waits her time, 

 
E|---------0-------0-----------------------0-------0---------------| 
B|------10------10------10------10------10------10------10------10-| 
G|---11------11------11------11------11------11------11------11----| 
D|-10----------------------10------(b9)----------------------(b9)--| 
A|-----------------------------------------------------------------| 
E|-----------------------------------------------------------------| 
 
And all her love 

 
E|---------0-------0-----------------------------------------------| 
B|------11------11------11------11---------------------------------| 
G|---11------11------11------11------------------------------------| 
D|-8-----------------------8-------0-------------------------------| 
A|-----------------------------------------------------------------| 
E|-----------------------------------------------------------------| 
 
it sings it shines. 

Verso: 

 
E|---------0-------0-------0---------------0-------0-------0-------| 
B|------10------10------10------10------10------10------10------10-| 
G|---11------11------11------11------11------11------11------11----| 
D|-0-------------------------------0-------------------------------| 
A|-----------------------------------------------------------------| 
E|-----------------------------------------------------------------| 
 
Have your coffee, 
splishy splashy  

 
E|---------0-------0-------0---------------0-------0-------0-------| 
B|------10------10------10------10------10------10------10------10-| 
G|---11------11------11------11------11------11------11------11----| 
D|-0-------------------------------0-------------------------------| 
A|-----------------------------------------------------------------| 
E|-----------------------------------------------------------------| 
 
 frozen up the stairs.  

 
E|---------0-------0-------0---------------0-------0-------0-------| 
B|------10------10------10------10------10------10------10------10-| 
G|---11------11------11------11------11------11------11------11----| 
D|-0-------------------------------0-------------------------------| 
A|-----------------------------------------------------------------| 
E|-----------------------------------------------------------------| 
 
Hollow but so 
normal when she  

 
E|---------0-------0-------0---------------0-------0---------------| 
B|------10------10------10------10------10------10------10------10-| 
G|---11------11------11------11------11------11------11------11----| 
D|-0-------------------------------0-----------------------(b9)----| 
A|-----------------------------------------------------------------| 
E|-----------------------------------------------------------------| 
 
 needs a piece of care. 

2º Refrão 4x: 

 
E|---------0-------0-----------------------0-------0---------------| 
B|------10------10------10------10------10------10------10------10-| 
 g||.--11------11------11------11------11------11------11------11----| 
 d||.10----------------------10------(b9)----------------------(b9)--| 
A|-----------------------------------------------------------------| 
E|-----------------------------------------------------------------| 
 
She waits her turn 


 
E|---------0-------0-----------------------0-------0---------------|| 
B|------11------11------11------10------10------10------10------10-|| 
G|---11------11------11------11------11------11------11------11---.|| 
D|-8-----------------------8------(b9)----------------------(b9)--.|| 
A|-----------------------------------------------------------------|| 
E|-----------------------------------------------------------------|| 
 
she waits her time,  

 
E|---------0-------0-----------------------0-------0---------------| 
B|------10------10------10------10------10------10------10------10-| 
G|---11------11------11------11------11------11------11------11----| 
D|-10----------------------10------(b9)----------------------(b9)--| 
A|-----------------------------------------------------------------| 
E|-----------------------------------------------------------------| 
 
And all her love 

 
E|---------0-------0-----------------------------------------------| 
B|------11------11------11------11---------------------------------| 
G|---11------11------11------11------------------------------------| 
D|-8-----------------------8-------0-------------------------------| 
A|-----------------------------------------------------------------| 
E|-----------------------------------------------------------------| 
 
it sings it shines. 

"aaah aaaahhh" (2:30) 
 
E|---------0-------0-----------------------0-------0---------------| 
B|------10------10------10------11------10------10------10------10-| 
G|---11------11------11------11------11------11------11------11----| 
D|-8-----------------------8-------(b9)----------------------(b9)--| 
A|-----------------------------------------------------------------| 
E|-----------------------------------------------------------------| 
 

 
E|---------0-------0-----------------------0-------0---------------| 
B|------10------10------10------11------10------10------10------10-| 
G|---11------11------11------11------11------11------11------11----| 
D|-8-----------------------8-------(b9)----------------------(b9)--| 
A|-----------------------------------------------------------------| 
E|-----------------------------------------------------------------| 
 

 
E|---------0-------0-----------------------0-------0---------------| 
B|------11------11------11------11------10------10------10------10-| 
G|---11------11------11------11------11------11------11------11----| 
D|-8-----------------------8-------(b9)----------------------(b9)--| 
A|-----------------------------------------------------------------| 
E|-----------------------------------------------------------------| 
 

 
E|---------0-------0---------------| 
B|------10------10------10------11-| 
G|---11------11------11------11----| 
D|-8-----------------------8-------| 
A|---------------------------------| 
E|---------------------------------| 
 

Final: 

 
E|---------0-------0-------0---------------0-------0-------0-------| 
B|------10------10------10------10------10------10------10------10-| 
G|---11------11------11------11------11------11------11------11----| 
D|-0-------------------------------0-------------------------------| 
A|-----------------------------------------------------------------| 
E|-----------------------------------------------------------------| 
 

 
E|---------0-------0-------0---------------0-------0-------0-------| 
B|------10------10------10------10------10------10------10---------| 
G|---11------11------11------11------11------11------11------11-(b9)7| 
D|-0-------------------------------0-------------------------------| 
A|-----------------------------------------------------------------| 
E|-----------------------------------------------------------------| 
		  

See also:

tabs Westlife - Flying Without Wings tabs Damien Rice - My Favourite Faded Fantasy tabs Damien Rice - Delicate (ver. 2) tabs The Corrs - No Frontiers tabs Damien Rice - Hallelujah tabs Damien Rice - Cold Water
e-chords

Other versions:

tabs Lisa Hannigan - Splishy Splashy
auto scroll beats size up size down change color hide chords drawings
tab show chords e-chords YouTube Clip e-chords hide all tabs e-chords go to top tab

share with facebook