Linkin Park

White Noise Tab

Linkin Park

Difficulty: nolevelnolevel

by edsooliveira

tuner correct add songbook print version text version save to e-mail
chordsukulelecavacokeyboardtabbassdrumsharmonicsflute Guitar Pro
close

there isn't a video lesson for this song

request
chords

White Noise

  		 

Intro (0:00-0:12) 
Guitar I 
x2 
E|-7-----8-7--------------------------------------------------| 
B|-----------10-8---7--7--8-7---------------------------------| 
G|-----9----------------------9-------------------------------| 
D|---9--------------------------------------------------------| 
A|------------------------------------------------------------| 
D|------------------------------------------------------------| 

E|-7-----8-7--------------------------------------------------| 
B|-----------10-8---7--7--8-----------------------------------| 
G|-----9--------------------9---------------------------------| 
D|---9--------------------------------------------------------| 
A|------------------------------------------------------------| 
D|------------------------------------------------------------| 
______________________________________________________________ 

Pre-Verse (0:13-0:29) 
Guitar I (0:15-0:29) 
x1 
E|------------------------------------------------------------| 
B|------------------------------------------------------------| 
G|-9----------9----------9----------9----------9----------9---| 
D|-x----------x----------x----------x----------x----------x---| 
A|-7----------7----------7----------7----------7----------7---| 
D|------------------------------------------------------------| 

Guitar II 
I think guitar II's riff is palm muted, or it may even be  
an effect rather than a guitar. 
x6 
E|---------------------------------7-7-7-7-7-7-7-7------------| 
B|---------------------------------5-5-5-5-5-5-5-5-5-5-5-5-5--| 
G|-4-4-4-4-4-4-4-4-7-7-7-7-7-7-7-7-----------------4-4-4-4-4--| 
D|-2-2-2-2-2-2-2-2-5-5-5-5-5-5-5-5----------------------------| 
A|------------------------------------------------------------| 
D|------------------------------------------------------------| 

E|------------------------------------------------------------| 
B|-5-5-5------------------------------------------------------| 
G|-4-4-4------------------------------------------------------| 
D|------------------------------------------------------------| 
A|------------------------------------------------------------| 
D|------------------------------------------------------------| 

Guitar III (Heavy distortion) 
x4 
E|------------------------------------------------------------| 
B|------------------------------------------------------------| 
G|------------------------------------------------------------| 
D|-0-8-0-7-0-3-0-2--------------------------------------------| 
A|-0-8-0-7-0-3-0-2--------------------------------------------| 
D|-0-8-0-7-0-3-0-2--------------------------------------------| 
______________________________________________________________ 

Verse I (0:30-0:58) 
Guitar I (0:47-0:58) 
x1 
E|------------------------------------------------------------| 
B|------------------------------------------------------------| 
G|-9----------9----------9----------9-------------------------| 
D|-x----------x----------x----------x-------------------------| 
A|-7----------7----------7----------7-------------------------| 
D|------------------------------------------------------------| 

Guitar II 
x8 
E|---------------------------------7-7-7-7-7-7-7-7------------| 
B|---------------------------------5-5-5-5-5-5-5-5-5-5-5-5-5--| 
G|-4-4-4-4-4-4-4-4-7-7-7-7-7-7-7-7-----------------4-4-4-4-4--| 
D|-2-2-2-2-2-2-2-2-5-5-5-5-5-5-5-5----------------------------| 
A|------------------------------------------------------------| 
D|------------------------------------------------------------| 

E|------------------------------------------------------------| 
B|-5-5-5------------------------------------------------------| 
G|-4-4-4------------------------------------------------------| 
D|------------------------------------------------------------| 
A|------------------------------------------------------------| 
D|------------------------------------------------------------| 

Guitar III (0:45-0:58) 
x4 
E|------------------------------------------------------------| 
B|------------------------------------------------------------| 
G|------------------------------------------------------------| 
D|-0-8-0-7-0-3-0-2--------------------------------------------| 
A|-0-8-0-7-0-3-0-2--------------------------------------------| 
D|-0-8-0-7-0-3-0-2--------------------------------------------| 
______________________________________________________________ 

Short Interlude between Verse I and Chorus I 
Guitar I (0:59-1:02) 
x1 
E|-7-----8-7--------------------------------------------------| 
B|-----------10-8---7--7--8-7---------------------------------| 
G|-----9----------------------9-------------------------------| 
D|---9--------------------------------------------------------| 
A|------------------------------------------------------------| 
D|------------------------------------------------------------| 

E|-7-----8-7--------------------------------------------------| 
B|-----------10-8---7--7--8-----------------------------------| 
G|-----9--------------------9---------------------------------| 
D|---9--------------------------------------------------------| 
A|------------------------------------------------------------| 
D|------------------------------------------------------------| 
______________________________________________________________ 

Chorus I (1:03-1:15) 
Guitar I/II/III 
x3 
E|------------------------------------------------------------| 
B|------------------------------------------------------------| 
G|------------------------------------------------------------| 
D|-0-8-0-7-0-3-0--2--2--2--2----------------------------------| 
A|-0-8-0-7-0-3-0--2--2--2--2----------------------------------| 
D|-0-8-0-7-0-3-0--2--2--2--2----------------------------------| 

x1 
E|------------------------------------------------------------| 
B|------------------------------------------------------------| 
G|------------------------------------------------------------| 
D|-0-8-0-7-0-3-0-2--------------------------------------------| 
A|-0-8-0-7-0-3-0-2--------------------------------------------| 
D|-0-8-0-7-0-3-0-2--------------------------------------------| 
______________________________________________________________ 

Verse II (1:16-1:42) 
Guitar I (1:32-1:42) 
x1 
E|------------------------------------------------------------| 
B|------------------------------------------------------------| 
G|-9----------9----------9----------9-------------------------| 
D|-x----------x----------x----------x-------------------------| 
A|-7----------7----------7----------7-------------------------| 
D|------------------------------------------------------------| 

Guitar II 
x8 
E|---------------------------------7-7-7-7-7-7-7-7------------| 
B|---------------------------------5-5-5-5-5-5-5-5-5-5-5-5-5--| 
G|-4-4-4-4-4-4-4-4-7-7-7-7-7-7-7-7-----------------4-4-4-4-4--| 
D|-2-2-2-2-2-2-2-2-5-5-5-5-5-5-5-5----------------------------| 
A|------------------------------------------------------------| 
D|------------------------------------------------------------| 

E|------------------------------------------------------------| 
B|-5-5-5------------------------------------------------------| 
G|-4-4-4------------------------------------------------------| 
D|------------------------------------------------------------| 
A|------------------------------------------------------------| 
D|------------------------------------------------------------| 

Guitar III (1:30-1:42) 
x4 
E|------------------------------------------------------------| 
B|------------------------------------------------------------| 
G|------------------------------------------------------------| 
D|-0-8-0-7-0-3-0-2--------------------------------------------| 
A|-0-8-0-7-0-3-0-2--------------------------------------------| 
D|-0-8-0-7-0-3-0-2--------------------------------------------| 
______________________________________________________________ 

Short Interlude between Verse II and Chorus II 
Guitar I (1:43-1:49) 
x1 
E|-7-----8-7--------------------------------------------------| 
B|-----------10-8---7--7--8-7---------------------------------| 
G|-----9----------------------9-------------------------------| 
D|---9--------------------------------------------------------| 
A|------------------------------------------------------------| 
D|------------------------------------------------------------| 

E|-7-----8-7--------------------------------------------------| 
B|-----------10-8---7--7--8-----------------------------------| 
G|-----9--------------------9---------------------------------| 
D|---9--------------------------------------------------------| 
A|------------------------------------------------------------| 
D|------------------------------------------------------------| 

Guitar II (1:48-1:49) 
E|------------------------------------------------------------| 
B|------------------------------------------------------------| 
G|-12~--------------------------------------------------------| 
D|-x----------------------------------------------------------| 
A|-10~--------------------------------------------------------| 
D|------------------------------------------------------------| 

______________________________________________________________ 

Chorus II (1:50-2:01) 
Guitar I/II/III 
x3 
E|------------------------------------------------------------| 
B|------------------------------------------------------------| 
G|------------------------------------------------------------| 
D|-0-8-0-7-0-3-0--2--2--2--2----------------------------------| 
A|-0-8-0-7-0-3-0--2--2--2--2----------------------------------| 
D|-0-8-0-7-0-3-0--2--2--2--2----------------------------------| 

x1 
E|------------------------------------------------------------| 
B|------------------------------------------------------------| 
G|------------------------------------------------------------| 
D|-0-8-0-7-0-3-0-2--------------------------------------------| 
A|-0-8-0-7-0-3-0-2--------------------------------------------| 
D|-0-8-0-7-0-3-0-2--------------------------------------------| 
______________________________________________________________ 

Bridge (2:03-2:28) 
Guitar I/II/III 
x2 
E|------------------------------------------------------------| 
B|------------------------------------------------------------| 
G|------------------------------------------------------------| 
D|-2-2-2-1-0-0-0-0-3-3-3-3-6-6-6-6----------------------------| 
A|-2-2-2-1-0-0-0-0-3-3-3-3-6-6-6-6----------------------------| 
D|-2-2-2-1-0-0-0-0-3-3-3-3-6-6-6-6----------------------------| 

E|------------------------------------------------------------| 
B|------------------------------------------------------------| 
G|------------------------------------------------------------| 
D|-2-2-2-1-0-0-0-0-3-3-3-3-3-0-6-0----------------------------| 
A|-2-2-2-1-0-0-0-0-3-3-3-3-3-0-6-0----------------------------| 
D|-2-2-2-1-0-0-0-0-3-3-3-3-3-0-6-0----------------------------| 

E|------------------------------------------------------------| 
B|------------------------------------------------------------| 
G|------------------------------------------------------------| 
D|-2-2-2-1-0-0-0-0-3-3-3-3-6-6-6-6----------------------------| 
A|-2-2-2-1-0-0-0-0-3-3-3-3-6-6-6-6----------------------------| 
D|-2-2-2-1-0-0-0-0-3-3-3-3-6-6-6-6----------------------------| 

E|------------------------------------------------------------| 
B|------------------------------------------------------------| 
G|------------------------------------------------------------| 
D|-2-2-2-1-0-0-0-0-3-3-3-3-6-0-3-0----------------------------| 
A|-2-2-2-1-0-0-0-0-3-3-3-3-6-0-3-0----------------------------| 
D|-2-2-2-1-0-0-0-0-3-3-3-3-6-0-3-0----------------------------| 

Bridge ends on this 
x1 
E|------------------------------------------------------------| 
B|------------------------------------------------------------| 
G|------------------------------------------------------------| 
D|-2----------------------------------------------------------| 
A|-2----------------------------------------------------------| 
D|-2----------------------------------------------------------| 
______________________________________________________________ 

Pre-Chorus (2:29-2:40) 
Guitar I 
E|-7-----8-7--------------------------------------------------| 
B|-----------10-8---7--7--8-7---------------------------------| 
G|-----9----------------------9-------------------------------| 
D|---9--------------------------------------------------------| 
A|------------------------------------------------------------| 
D|------------------------------------------------------------| 

E|-7-----8-7--------------------------------------------------| 
B|-----------10-8---7--7--8-----------------------------------| 
G|-----9--------------------9---------------------------------| 
D|---9--------------------------------------------------------| 
A|------------------------------------------------------------| 
D|------------------------------------------------------------| 

E|-7-----8-7--------------------------------------------------| 
B|-----------10-8---7--7--8-7---------------------------------| 
G|-----9----------------------9-------------------------------| 
D|---9--------------------------------------------------------| 
A|------------------------------------------------------------| 
D|------------------------------------------------------------| 

E|-7-----8-7--------------------------------------------------| 
B|-----------10-8---7--7--8-----------------------------------| 
G|-----9------------------------------------------------------| 
D|---9--------------------------------------------------------| 
A|------------------------------------------------------------| 
D|------------------------------------------------------------| 
______________________________________________________________ 

Chorus III (2:41-3:03) 
Guitar I/II/III 
x7 
E|------------------------------------------------------------| 
B|------------------------------------------------------------| 
G|------------------------------------------------------------| 
D|-0-8-0-7-0-3-0--2--2--2--2----------------------------------| 
A|-0-8-0-7-0-3-0--2--2--2--2----------------------------------| 
D|-0-8-0-7-0-3-0--2--2--2--2----------------------------------| 

x1 
E|------------------------------------------------------------| 
B|------------------------------------------------------------| 
G|------------------------------------------------------------| 
D|-0-8-0-7-0-3-0-2--------------------------------------------| 
A|-0-8-0-7-0-3-0-2--------------------------------------------| 
D|-0-8-0-7-0-3-0-2--------------------------------------------|  
	  

Search Paypal
auto scroll beats size up size down change color hide chords drawings
tab show chords e-chords YouTube Clip e-chords hide all tabs e-chords go to top tab

share with facebook