Linkin Park

home > Linkin Park

What I've Done Tab

Linkin Park

Difficulty: ExpertExpert

by europeu

tuner correct add songbook print version text version save to e-mail
chordsukulelecavacokeyboardtabbassdrummharmonicsflute Guitar Pro
chords

What I've Done

Year: 2007 - Album: Minutes To Midnight

  		
6x    2x    6x    2x     8x    6x    2x    6x    2x    6x               
-----|-----|-----|------|-----|-----|-----|-----|-----|--------- 
-----|-----|-----|------|-----|-----|-----|-----|-----|--------- 
-----|-----|-----|------|-----|-----|-----|-----|-----|--------- 
--8--|--7--|--8--|--10--|--7--|--5--|--7--|--8--|--7--|--8------ 
-----|-----|-----|------|-----|-----|-----|-----|-----|--------- 
-----|-----|-----| -----|-----|-----|-----|-----|-----|--------- 


2x    8x    6x 
-----|-----|-----|---------------------------------------------- 
-----|-----|-----|---------------------------------------------- 
-----|-----|-----|---------------------------------------------- 
-10--|--7--|--5--|--7--7--8------------------------------------- 
-----|-----|-----|---------------------------------------------- 
-----|-----|-----|---------------------------------------------- 



2 


        6x    2x    6x    2x     8x    6x    2x    6x    2x 
-------|-----|-----|-----|------|-----|-----|-----|-----|------- 
-------|-----|-----|-----|------|-----|-----|-----|-----|------- 
-------|-----|-----|-----|------|-----|-----|-----|-----|------- 
-8--8--|--8--|--7--|--8--|--10--|--7--|--5--|--7--|--8--|--7---- 
-------|-----|-----|-----|------|-----|-----|-----|-----|------- 
-------|-----|-----|-----|------|-----|-----|-----|-----|------- 

  
6x    2x     8x    6x 
-----|------|-----|-----|--------------------------------------- 
-----|------|-----|-----|--------------------------------------- 
-----|------|-----|-----|--------------------------------------- 
--8--|--10--|--7--|--5--|--7--7--8------------------------------ 
-----|------|-----|-----|--------------------------------------- 
-----|------|-----|-----|--------------------------------------- 



3 


6x    2x    6x    2x     8x    6x    2x    6x    2x    6x               
-----|-----|-----|------|-----|-----|-----|-----|-----|--------- 
-----|-----|-----|------|-----|-----|-----|-----|-----|--------- 
-----|-----|-----|------|-----|-----|-----|-----|-----|--------- 
--8--|--7--|--8--|--10--|--7--|--5--|--7--|--8--|--7--|--8------ 
-----|-----|-----|------|-----|-----|-----|-----|-----|--------- 
-----|-----|-----| -----|-----|-----|-----|-----|-----|--------- 


2x    8x    6x 
-----|-----|-----|---------------------------------------------- 
-----|-----|-----|---------------------------------------------- 
-----|-----|-----|---------------------------------------------- 
-10--|--7--|--5--|--7--7--8------------------------------------- 
-----|-----|-----|---------------------------------------------- 
-----|-----|-----|---------------------------------------------- 


4 


------------------------------6--------------------------------- 
------6-----6-----6-----8--------------------------------------- 
-5h7-----7-----7-----7-----7------------------------------------ 
---------------------------------------------------------------- 
---------------------------------------------------------------- 
---------------------------------------------------------------- 

----------------------------5----------------------------------- 
----6-----6-----6-----8-----------8----------------------------- 
-7-----7-----7-----7-----7-----7-------------------------------- 
---------------------------------------------------------------- 
---------------------------------------------------------------- 
---------------------------------------------------------------- 


----------------------------6----------------------------------- 
----6-----6-----6-----8----------------------------------------- 
-7-----7-----7-----7-----7-------------------------------------- 
---------------------------------------------------------------- 
---------------------------------------------------------------- 
---------------------------------------------------------------- 

	  

Search Paypal
auto scroll beats size up size down change color hide chords drawings
tab show chords e-chords YouTube Clip e-chords hide all tabs e-chords go to top tab